ISO-10303-21;
HEADER;
/* Generated by software containing ST-Developer
 * from STEP Tools, Inc. (www.steptools.com) 
 */

FILE_DESCRIPTION(
/* description */ (''),
/* implementation_level */ '2;1');

FILE_NAME(
/* name */ '/Users/hwv/www/maps/hardware/small tab 2.step',
/* time_stamp */ '2019-03-14T16:04:55-06:00',
/* author */ (''),
/* organization */ (''),
/* preprocessor_version */ 'ST-DEVELOPER v17.2',
/* originating_system */ 'Autodesk Translation Framework v7.6.0.251',
/* authorisation */ '');

FILE_SCHEMA (('AUTOMOTIVE_DESIGN { 1 0 10303 214 3 1 1 }'));
ENDSEC;

DATA;
#10=MECHANICAL_DESIGN_GEOMETRIC_PRESENTATION_REPRESENTATION('',(#13),#541);
#11=SHAPE_REPRESENTATION_RELATIONSHIP('SRR','None',#548,#12);
#12=ADVANCED_BREP_SHAPE_REPRESENTATION('',(#14),#540);
#13=STYLED_ITEM('',(#557),#14);
#14=MANIFOLD_SOLID_BREP('Body1',#321);
#15=FACE_BOUND('',#72,.T.);
#16=FACE_BOUND('',#73,.T.);
#17=FACE_BOUND('',#74,.T.);
#18=FACE_BOUND('',#75,.T.);
#19=FACE_BOUND('',#77,.T.);
#20=FACE_BOUND('',#78,.T.);
#21=FACE_BOUND('',#79,.T.);
#22=FACE_BOUND('',#80,.T.);
#23=CIRCLE('',#337,1.05);
#24=CIRCLE('',#338,1.05);
#25=CIRCLE('',#341,1.05);
#26=CIRCLE('',#342,1.05);
#27=CIRCLE('',#344,1.47320000000001);
#28=CIRCLE('',#345,1.47320000000001);
#29=CIRCLE('',#347,1.47319999999999);
#30=CIRCLE('',#348,1.47319999999999);
#31=CIRCLE('',#351,1.05);
#32=CIRCLE('',#352,1.05);
#33=CIRCLE('',#355,1.05);
#34=CIRCLE('',#356,1.05);
#35=CYLINDRICAL_SURFACE('',#336,1.05);
#36=CYLINDRICAL_SURFACE('',#340,1.05);
#37=CYLINDRICAL_SURFACE('',#343,1.47320000000001);
#38=CYLINDRICAL_SURFACE('',#346,1.47319999999999);
#39=CYLINDRICAL_SURFACE('',#350,1.05);
#40=CYLINDRICAL_SURFACE('',#354,1.05);
#41=FACE_OUTER_BOUND('',#57,.T.);
#42=FACE_OUTER_BOUND('',#58,.T.);
#43=FACE_OUTER_BOUND('',#59,.T.);
#44=FACE_OUTER_BOUND('',#60,.T.);
#45=FACE_OUTER_BOUND('',#61,.T.);
#46=FACE_OUTER_BOUND('',#62,.T.);
#47=FACE_OUTER_BOUND('',#63,.T.);
#48=FACE_OUTER_BOUND('',#64,.T.);
#49=FACE_OUTER_BOUND('',#65,.T.);
#50=FACE_OUTER_BOUND('',#66,.T.);
#51=FACE_OUTER_BOUND('',#67,.T.);
#52=FACE_OUTER_BOUND('',#68,.T.);
#53=FACE_OUTER_BOUND('',#69,.T.);
#54=FACE_OUTER_BOUND('',#70,.T.);
#55=FACE_OUTER_BOUND('',#71,.T.);
#56=FACE_OUTER_BOUND('',#76,.T.);
#57=EDGE_LOOP('',(#211,#212,#213,#214));
#58=EDGE_LOOP('',(#215,#216,#217,#218));
#59=EDGE_LOOP('',(#219,#220,#221,#222));
#60=EDGE_LOOP('',(#223,#224,#225,#226));
#61=EDGE_LOOP('',(#227,#228,#229,#230));
#62=EDGE_LOOP('',(#231,#232,#233,#234));
#63=EDGE_LOOP('',(#235,#236,#237,#238));
#64=EDGE_LOOP('',(#239,#240,#241,#242));
#65=EDGE_LOOP('',(#243,#244,#245,#246));
#66=EDGE_LOOP('',(#247,#248,#249,#250));
#67=EDGE_LOOP('',(#251,#252,#253,#254));
#68=EDGE_LOOP('',(#255,#256,#257,#258));
#69=EDGE_LOOP('',(#259,#260,#261,#262));
#70=EDGE_LOOP('',(#263,#264,#265,#266));
#71=EDGE_LOOP('',(#267,#268,#269,#270));
#72=EDGE_LOOP('',(#271,#272,#273,#274));
#73=EDGE_LOOP('',(#275));
#74=EDGE_LOOP('',(#276));
#75=EDGE_LOOP('',(#277,#278,#279,#280));
#76=EDGE_LOOP('',(#281,#282,#283,#284));
#77=EDGE_LOOP('',(#285,#286,#287,#288));
#78=EDGE_LOOP('',(#289));
#79=EDGE_LOOP('',(#290));
#80=EDGE_LOOP('',(#291,#292,#293,#294));
#81=LINE('',#455,#111);
#82=LINE('',#457,#112);
#83=LINE('',#459,#113);
#84=LINE('',#460,#114);
#85=LINE('',#466,#115);
#86=LINE('',#469,#116);
#87=LINE('',#471,#117);
#88=LINE('',#472,#118);
#89=LINE('',#480,#119);
#90=LINE('',#486,#120);
#91=LINE('',#491,#121);
#92=LINE('',#493,#122);
#93=LINE('',#495,#123);
#94=LINE('',#496,#124);
#95=LINE('',#502,#125);
#96=LINE('',#505,#126);
#97=LINE('',#507,#127);
#98=LINE('',#508,#128);
#99=LINE('',#515,#129);
#100=LINE('',#517,#130);
#101=LINE('',#519,#131);
#102=LINE('',#520,#132);
#103=LINE('',#523,#133);
#104=LINE('',#525,#134);
#105=LINE('',#526,#135);
#106=LINE('',#529,#136);
#107=LINE('',#531,#137);
#108=LINE('',#532,#138);
#109=LINE('',#534,#139);
#110=LINE('',#535,#140);
#111=VECTOR('',#367,10.);
#112=VECTOR('',#368,10.);
#113=VECTOR('',#369,10.);
#114=VECTOR('',#370,10.);
#115=VECTOR('',#377,10.);
#116=VECTOR('',#380,10.);
#117=VECTOR('',#381,10.);
#118=VECTOR('',#382,10.);
#119=VECTOR('',#393,1.47320000000001);
#120=VECTOR('',#400,1.47319999999999);
#121=VECTOR('',#405,10.);
#122=VECTOR('',#406,10.);
#123=VECTOR('',#407,10.);
#124=VECTOR('',#408,10.);
#125=VECTOR('',#415,10.);
#126=VECTOR('',#418,10.);
#127=VECTOR('',#419,10.);
#128=VECTOR('',#420,10.);
#129=VECTOR('',#429,10.);
#130=VECTOR('',#430,10.);
#131=VECTOR('',#431,10.);
#132=VECTOR('',#432,10.);
#133=VECTOR('',#435,10.);
#134=VECTOR('',#436,10.);
#135=VECTOR('',#437,10.);
#136=VECTOR('',#440,10.);
#137=VECTOR('',#441,10.);
#138=VECTOR('',#442,10.);
#139=VECTOR('',#445,10.);
#140=VECTOR('',#446,10.);
#141=VERTEX_POINT('',#453);
#142=VERTEX_POINT('',#454);
#143=VERTEX_POINT('',#456);
#144=VERTEX_POINT('',#458);
#145=VERTEX_POINT('',#462);
#146=VERTEX_POINT('',#464);
#147=VERTEX_POINT('',#468);
#148=VERTEX_POINT('',#470);
#149=VERTEX_POINT('',#477);
#150=VERTEX_POINT('',#479);
#151=VERTEX_POINT('',#483);
#152=VERTEX_POINT('',#485);
#153=VERTEX_POINT('',#489);
#154=VERTEX_POINT('',#490);
#155=VERTEX_POINT('',#492);
#156=VERTEX_POINT('',#494);
#157=VERTEX_POINT('',#498);
#158=VERTEX_POINT('',#500);
#159=VERTEX_POINT('',#504);
#160=VERTEX_POINT('',#506);
#161=VERTEX_POINT('',#513);
#162=VERTEX_POINT('',#514);
#163=VERTEX_POINT('',#516);
#164=VERTEX_POINT('',#518);
#165=VERTEX_POINT('',#522);
#166=VERTEX_POINT('',#524);
#167=VERTEX_POINT('',#528);
#168=VERTEX_POINT('',#530);
#169=EDGE_CURVE('',#141,#142,#81,.T.);
#170=EDGE_CURVE('',#142,#143,#82,.T.);
#171=EDGE_CURVE('',#144,#143,#83,.T.);
#172=EDGE_CURVE('',#141,#144,#84,.T.);
#173=EDGE_CURVE('',#145,#141,#23,.T.);
#174=EDGE_CURVE('',#146,#144,#24,.T.);
#175=EDGE_CURVE('',#145,#146,#85,.T.);
#176=EDGE_CURVE('',#147,#145,#86,.T.);
#177=EDGE_CURVE('',#148,#146,#87,.T.);
#178=EDGE_CURVE('',#147,#148,#88,.T.);
#179=EDGE_CURVE('',#142,#147,#25,.T.);
#180=EDGE_CURVE('',#143,#148,#26,.T.);
#181=EDGE_CURVE('',#149,#149,#27,.T.);
#182=EDGE_CURVE('',#149,#150,#89,.T.);
#183=EDGE_CURVE('',#150,#150,#28,.T.);
#184=EDGE_CURVE('',#151,#151,#29,.T.);
#185=EDGE_CURVE('',#151,#152,#90,.T.);
#186=EDGE_CURVE('',#152,#152,#30,.T.);
#187=EDGE_CURVE('',#153,#154,#91,.T.);
#188=EDGE_CURVE('',#154,#155,#92,.T.);
#189=EDGE_CURVE('',#156,#155,#93,.T.);
#190=EDGE_CURVE('',#153,#156,#94,.T.);
#191=EDGE_CURVE('',#157,#153,#31,.T.);
#192=EDGE_CURVE('',#158,#156,#32,.T.);
#193=EDGE_CURVE('',#157,#158,#95,.T.);
#194=EDGE_CURVE('',#159,#157,#96,.T.);
#195=EDGE_CURVE('',#160,#158,#97,.T.);
#196=EDGE_CURVE('',#159,#160,#98,.T.);
#197=EDGE_CURVE('',#154,#159,#33,.T.);
#198=EDGE_CURVE('',#155,#160,#34,.T.);
#199=EDGE_CURVE('',#161,#162,#99,.T.);
#200=EDGE_CURVE('',#161,#163,#100,.T.);
#201=EDGE_CURVE('',#164,#163,#101,.T.);
#202=EDGE_CURVE('',#162,#164,#102,.T.);
#203=EDGE_CURVE('',#162,#165,#103,.T.);
#204=EDGE_CURVE('',#166,#164,#104,.T.);
#205=EDGE_CURVE('',#165,#166,#105,.T.);
#206=EDGE_CURVE('',#165,#167,#106,.T.);
#207=EDGE_CURVE('',#168,#166,#107,.T.);
#208=EDGE_CURVE('',#167,#168,#108,.T.);
#209=EDGE_CURVE('',#167,#161,#109,.T.);
#210=EDGE_CURVE('',#163,#168,#110,.T.);
#211=ORIENTED_EDGE('',*,*,#169,.T.);
#212=ORIENTED_EDGE('',*,*,#170,.T.);
#213=ORIENTED_EDGE('',*,*,#171,.F.);
#214=ORIENTED_EDGE('',*,*,#172,.F.);
#215=ORIENTED_EDGE('',*,*,#173,.T.);
#216=ORIENTED_EDGE('',*,*,#172,.T.);
#217=ORIENTED_EDGE('',*,*,#174,.F.);
#218=ORIENTED_EDGE('',*,*,#175,.F.);
#219=ORIENTED_EDGE('',*,*,#176,.T.);
#220=ORIENTED_EDGE('',*,*,#175,.T.);
#221=ORIENTED_EDGE('',*,*,#177,.F.);
#222=ORIENTED_EDGE('',*,*,#178,.F.);
#223=ORIENTED_EDGE('',*,*,#179,.T.);
#224=ORIENTED_EDGE('',*,*,#178,.T.);
#225=ORIENTED_EDGE('',*,*,#180,.F.);
#226=ORIENTED_EDGE('',*,*,#170,.F.);
#227=ORIENTED_EDGE('',*,*,#181,.F.);
#228=ORIENTED_EDGE('',*,*,#182,.T.);
#229=ORIENTED_EDGE('',*,*,#183,.T.);
#230=ORIENTED_EDGE('',*,*,#182,.F.);
#231=ORIENTED_EDGE('',*,*,#184,.F.);
#232=ORIENTED_EDGE('',*,*,#185,.T.);
#233=ORIENTED_EDGE('',*,*,#186,.T.);
#234=ORIENTED_EDGE('',*,*,#185,.F.);
#235=ORIENTED_EDGE('',*,*,#187,.T.);
#236=ORIENTED_EDGE('',*,*,#188,.T.);
#237=ORIENTED_EDGE('',*,*,#189,.F.);
#238=ORIENTED_EDGE('',*,*,#190,.F.);
#239=ORIENTED_EDGE('',*,*,#191,.T.);
#240=ORIENTED_EDGE('',*,*,#190,.T.);
#241=ORIENTED_EDGE('',*,*,#192,.F.);
#242=ORIENTED_EDGE('',*,*,#193,.F.);
#243=ORIENTED_EDGE('',*,*,#194,.T.);
#244=ORIENTED_EDGE('',*,*,#193,.T.);
#245=ORIENTED_EDGE('',*,*,#195,.F.);
#246=ORIENTED_EDGE('',*,*,#196,.F.);
#247=ORIENTED_EDGE('',*,*,#197,.T.);
#248=ORIENTED_EDGE('',*,*,#196,.T.);
#249=ORIENTED_EDGE('',*,*,#198,.F.);
#250=ORIENTED_EDGE('',*,*,#188,.F.);
#251=ORIENTED_EDGE('',*,*,#199,.F.);
#252=ORIENTED_EDGE('',*,*,#200,.T.);
#253=ORIENTED_EDGE('',*,*,#201,.F.);
#254=ORIENTED_EDGE('',*,*,#202,.F.);
#255=ORIENTED_EDGE('',*,*,#203,.F.);
#256=ORIENTED_EDGE('',*,*,#202,.T.);
#257=ORIENTED_EDGE('',*,*,#204,.F.);
#258=ORIENTED_EDGE('',*,*,#205,.F.);
#259=ORIENTED_EDGE('',*,*,#206,.F.);
#260=ORIENTED_EDGE('',*,*,#205,.T.);
#261=ORIENTED_EDGE('',*,*,#207,.F.);
#262=ORIENTED_EDGE('',*,*,#208,.F.);
#263=ORIENTED_EDGE('',*,*,#209,.F.);
#264=ORIENTED_EDGE('',*,*,#208,.T.);
#265=ORIENTED_EDGE('',*,*,#210,.F.);
#266=ORIENTED_EDGE('',*,*,#200,.F.);
#267=ORIENTED_EDGE('',*,*,#210,.T.);
#268=ORIENTED_EDGE('',*,*,#207,.T.);
#269=ORIENTED_EDGE('',*,*,#204,.T.);
#270=ORIENTED_EDGE('',*,*,#201,.T.);
#271=ORIENTED_EDGE('',*,*,#198,.T.);
#272=ORIENTED_EDGE('',*,*,#195,.T.);
#273=ORIENTED_EDGE('',*,*,#192,.T.);
#274=ORIENTED_EDGE('',*,*,#189,.T.);
#275=ORIENTED_EDGE('',*,*,#184,.T.);
#276=ORIENTED_EDGE('',*,*,#181,.T.);
#277=ORIENTED_EDGE('',*,*,#180,.T.);
#278=ORIENTED_EDGE('',*,*,#177,.T.);
#279=ORIENTED_EDGE('',*,*,#174,.T.);
#280=ORIENTED_EDGE('',*,*,#171,.T.);
#281=ORIENTED_EDGE('',*,*,#209,.T.);
#282=ORIENTED_EDGE('',*,*,#199,.T.);
#283=ORIENTED_EDGE('',*,*,#203,.T.);
#284=ORIENTED_EDGE('',*,*,#206,.T.);
#285=ORIENTED_EDGE('',*,*,#197,.F.);
#286=ORIENTED_EDGE('',*,*,#187,.F.);
#287=ORIENTED_EDGE('',*,*,#191,.F.);
#288=ORIENTED_EDGE('',*,*,#194,.F.);
#289=ORIENTED_EDGE('',*,*,#186,.F.);
#290=ORIENTED_EDGE('',*,*,#183,.F.);
#291=ORIENTED_EDGE('',*,*,#179,.F.);
#292=ORIENTED_EDGE('',*,*,#169,.F.);
#293=ORIENTED_EDGE('',*,*,#173,.F.);
#294=ORIENTED_EDGE('',*,*,#176,.F.);
#295=PLANE('',#335);
#296=PLANE('',#339);
#297=PLANE('',#349);
#298=PLANE('',#353);
#299=PLANE('',#357);
#300=PLANE('',#358);
#301=PLANE('',#359);
#302=PLANE('',#360);
#303=PLANE('',#361);
#304=PLANE('',#362);
#305=ADVANCED_FACE('',(#41),#295,.T.);
#306=ADVANCED_FACE('',(#42),#35,.F.);
#307=ADVANCED_FACE('',(#43),#296,.T.);
#308=ADVANCED_FACE('',(#44),#36,.F.);
#309=ADVANCED_FACE('',(#45),#37,.F.);
#310=ADVANCED_FACE('',(#46),#38,.F.);
#311=ADVANCED_FACE('',(#47),#297,.T.);
#312=ADVANCED_FACE('',(#48),#39,.F.);
#313=ADVANCED_FACE('',(#49),#298,.T.);
#314=ADVANCED_FACE('',(#50),#40,.F.);
#315=ADVANCED_FACE('',(#51),#299,.T.);
#316=ADVANCED_FACE('',(#52),#300,.T.);
#317=ADVANCED_FACE('',(#53),#301,.T.);
#318=ADVANCED_FACE('',(#54),#302,.T.);
#319=ADVANCED_FACE('',(#55,#15,#16,#17,#18),#303,.T.);
#320=ADVANCED_FACE('',(#56,#19,#20,#21,#22),#304,.F.);
#321=CLOSED_SHELL('',(#305,#306,#307,#308,#309,#310,#311,#312,#313,#314,
#315,#316,#317,#318,#319,#320));
#322=DERIVED_UNIT_ELEMENT(#324,1.);
#323=DERIVED_UNIT_ELEMENT(#543,3.);
#324=(
MASS_UNIT()
NAMED_UNIT(*)
SI_UNIT(.KILO.,.GRAM.)
);
#325=DERIVED_UNIT((#322,#323));
#326=MEASURE_REPRESENTATION_ITEM('density measure',
POSITIVE_RATIO_MEASURE(7850.),#325);
#327=PROPERTY_DEFINITION_REPRESENTATION(#332,#329);
#328=PROPERTY_DEFINITION_REPRESENTATION(#333,#330);
#329=REPRESENTATION('material name',(#331),#540);
#330=REPRESENTATION('density',(#326),#540);
#331=DESCRIPTIVE_REPRESENTATION_ITEM('Steel','Steel');
#332=PROPERTY_DEFINITION('material property','material name',#550);
#333=PROPERTY_DEFINITION('material property','density of part',#550);
#334=AXIS2_PLACEMENT_3D('placement',#451,#363,#364);
#335=AXIS2_PLACEMENT_3D('',#452,#365,#366);
#336=AXIS2_PLACEMENT_3D('',#461,#371,#372);
#337=AXIS2_PLACEMENT_3D('',#463,#373,#374);
#338=AXIS2_PLACEMENT_3D('',#465,#375,#376);
#339=AXIS2_PLACEMENT_3D('',#467,#378,#379);
#340=AXIS2_PLACEMENT_3D('',#473,#383,#384);
#341=AXIS2_PLACEMENT_3D('',#474,#385,#386);
#342=AXIS2_PLACEMENT_3D('',#475,#387,#388);
#343=AXIS2_PLACEMENT_3D('',#476,#389,#390);
#344=AXIS2_PLACEMENT_3D('',#478,#391,#392);
#345=AXIS2_PLACEMENT_3D('',#481,#394,#395);
#346=AXIS2_PLACEMENT_3D('',#482,#396,#397);
#347=AXIS2_PLACEMENT_3D('',#484,#398,#399);
#348=AXIS2_PLACEMENT_3D('',#487,#401,#402);
#349=AXIS2_PLACEMENT_3D('',#488,#403,#404);
#350=AXIS2_PLACEMENT_3D('',#497,#409,#410);
#351=AXIS2_PLACEMENT_3D('',#499,#411,#412);
#352=AXIS2_PLACEMENT_3D('',#501,#413,#414);
#353=AXIS2_PLACEMENT_3D('',#503,#416,#417);
#354=AXIS2_PLACEMENT_3D('',#509,#421,#422);
#355=AXIS2_PLACEMENT_3D('',#510,#423,#424);
#356=AXIS2_PLACEMENT_3D('',#511,#425,#426);
#357=AXIS2_PLACEMENT_3D('',#512,#427,#428);
#358=AXIS2_PLACEMENT_3D('',#521,#433,#434);
#359=AXIS2_PLACEMENT_3D('',#527,#438,#439);
#360=AXIS2_PLACEMENT_3D('',#533,#443,#444);
#361=AXIS2_PLACEMENT_3D('',#536,#447,#448);
#362=AXIS2_PLACEMENT_3D('',#537,#449,#450);
#363=DIRECTION('axis',(0.,0.,1.));
#364=DIRECTION('refdir',(1.,0.,0.));
#365=DIRECTION('center_axis',(-0.00186314188222453,-0.999998264349657,0.));
#366=DIRECTION('ref_axis',(0.999998264349657,-0.00186314188222453,0.));
#367=DIRECTION('',(0.999998264349657,-0.00186314188222453,0.));
#368=DIRECTION('',(0.,0.,1.));
#369=DIRECTION('',(0.999998264349657,-0.00186314188222453,0.));
#370=DIRECTION('',(0.,0.,1.));
#371=DIRECTION('center_axis',(0.,0.,1.));
#372=DIRECTION('ref_axis',(-0.999999999999794,-6.41161178284094E-7,0.));
#373=DIRECTION('center_axis',(0.,0.,-1.));
#374=DIRECTION('ref_axis',(0.00186314188223066,0.999998264349657,0.));
#375=DIRECTION('center_axis',(0.,0.,-1.));
#376=DIRECTION('ref_axis',(0.00186314188223066,0.999998264349657,0.));
#377=DIRECTION('',(0.,0.,1.));
#378=DIRECTION('center_axis',(-0.00186442420235282,0.999998261959686,0.));
#379=DIRECTION('ref_axis',(-0.999998261959686,-0.00186442420235282,0.));
#380=DIRECTION('',(-0.999998261959686,-0.00186442420235282,0.));
#381=DIRECTION('',(-0.999998261959686,-0.00186442420235282,0.));
#382=DIRECTION('',(0.,0.,1.));
#383=DIRECTION('center_axis',(0.,0.,1.));
#384=DIRECTION('ref_axis',(0.999999999595317,-2.84493538622864E-5,0.));
#385=DIRECTION('center_axis',(0.,0.,-1.));
#386=DIRECTION('ref_axis',(-0.166115594230458,-0.98610628704692,0.));
#387=DIRECTION('center_axis',(0.,0.,-1.));
#388=DIRECTION('ref_axis',(-0.166115594230458,-0.98610628704692,0.));
#389=DIRECTION('center_axis',(0.,0.,1.));
#390=DIRECTION('ref_axis',(1.,0.,0.));
#391=DIRECTION('center_axis',(0.,0.,-1.));
#392=DIRECTION('ref_axis',(1.,0.,0.));
#393=DIRECTION('',(0.,0.,-1.));
#394=DIRECTION('center_axis',(0.,0.,-1.));
#395=DIRECTION('ref_axis',(1.,0.,0.));
#396=DIRECTION('center_axis',(0.,0.,1.));
#397=DIRECTION('ref_axis',(1.,0.,0.));
#398=DIRECTION('center_axis',(0.,0.,-1.));
#399=DIRECTION('ref_axis',(1.,0.,0.));
#400=DIRECTION('',(0.,0.,-1.));
#401=DIRECTION('center_axis',(0.,0.,-1.));
#402=DIRECTION('ref_axis',(1.,0.,0.));
#403=DIRECTION('center_axis',(-0.00186314188222679,-0.999998264349657,0.));
#404=DIRECTION('ref_axis',(0.999998264349657,-0.00186314188222679,0.));
#405=DIRECTION('',(0.999998264349657,-0.00186314188222679,0.));
#406=DIRECTION('',(0.,0.,1.));
#407=DIRECTION('',(0.999998264349657,-0.00186314188222679,0.));
#408=DIRECTION('',(0.,0.,1.));
#409=DIRECTION('center_axis',(0.,0.,1.));
#410=DIRECTION('ref_axis',(-0.999999999999794,-6.41161178146762E-7,0.));
#411=DIRECTION('center_axis',(0.,0.,-1.));
#412=DIRECTION('ref_axis',(0.00186314188219682,0.999998264349657,0.));
#413=DIRECTION('center_axis',(0.,0.,-1.));
#414=DIRECTION('ref_axis',(0.00186314188219682,0.999998264349657,0.));
#415=DIRECTION('',(0.,0.,1.));
#416=DIRECTION('center_axis',(-0.00186442420235281,0.999998261959686,0.));
#417=DIRECTION('ref_axis',(-0.999998261959686,-0.00186442420235281,0.));
#418=DIRECTION('',(-0.999998261959686,-0.00186442420235281,0.));
#419=DIRECTION('',(-0.999998261959686,-0.00186442420235281,0.));
#420=DIRECTION('',(0.,0.,1.));
#421=DIRECTION('center_axis',(0.,0.,1.));
#422=DIRECTION('ref_axis',(0.999999999595317,-2.84493538524728E-5,0.));
#423=DIRECTION('center_axis',(0.,0.,-1.));
#424=DIRECTION('ref_axis',(-0.166115594230458,-0.98610628704692,0.));
#425=DIRECTION('center_axis',(0.,0.,-1.));
#426=DIRECTION('ref_axis',(-0.166115594230458,-0.98610628704692,0.));
#427=DIRECTION('center_axis',(-1.,0.,0.));
#428=DIRECTION('ref_axis',(0.,-1.,0.));
#429=DIRECTION('',(0.,1.,0.));
#430=DIRECTION('',(0.,0.,1.));
#431=DIRECTION('',(0.,-1.,0.));
#432=DIRECTION('',(0.,0.,1.));
#433=DIRECTION('center_axis',(0.,1.,0.));
#434=DIRECTION('ref_axis',(-1.,0.,0.));
#435=DIRECTION('',(1.,0.,0.));
#436=DIRECTION('',(-1.,0.,0.));
#437=DIRECTION('',(0.,0.,1.));
#438=DIRECTION('center_axis',(1.,0.,0.));
#439=DIRECTION('ref_axis',(0.,1.,0.));
#440=DIRECTION('',(0.,-1.,0.));
#441=DIRECTION('',(0.,1.,0.));
#442=DIRECTION('',(0.,0.,1.));
#443=DIRECTION('center_axis',(-4.44089209850063E-16,-1.,0.));
#444=DIRECTION('ref_axis',(1.,-4.44089209850063E-16,0.));
#445=DIRECTION('',(-1.,4.44089209850063E-16,0.));
#446=DIRECTION('',(1.,-4.44089209850063E-16,0.));
#447=DIRECTION('center_axis',(0.,0.,1.));
#448=DIRECTION('ref_axis',(1.,0.,0.));
#449=DIRECTION('center_axis',(0.,0.,1.));
#450=DIRECTION('ref_axis',(1.,0.,0.));
#451=CARTESIAN_POINT('',(0.,0.,0.));
#452=CARTESIAN_POINT('Origin',(88.121852657516,-30.2165598292076,0.));
#453=CARTESIAN_POINT('',(88.121852657516,-30.2165598292076,0.));
#454=CARTESIAN_POINT('',(95.9455338984621,-30.2311364827008,0.));
#455=CARTESIAN_POINT('',(95.9455338984621,-30.2311364827008,0.));
#456=CARTESIAN_POINT('',(95.9455338984621,-30.2311364827008,3.175));
#457=CARTESIAN_POINT('',(95.9455338984621,-30.2311364827008,0.));
#458=CARTESIAN_POINT('',(88.121852657516,-30.2165598292076,3.175));
#459=CARTESIAN_POINT('',(95.9455338984621,-30.2311364827008,3.175));
#460=CARTESIAN_POINT('',(88.121852657516,-30.2165598292076,0.));
#461=CARTESIAN_POINT('Origin',(88.1198963585397,-31.2665580067748,0.));
#462=CARTESIAN_POINT('',(88.1218540039522,-32.3165561818324,0.));
#463=CARTESIAN_POINT('Origin',(88.1198963585397,-31.2665580067748,0.));
#464=CARTESIAN_POINT('',(88.1218540039522,-32.3165561818324,3.175));
#465=CARTESIAN_POINT('Origin',(88.1198963585397,-31.2665580067748,3.175));
#466=CARTESIAN_POINT('',(88.1218540039522,-32.3165561818324,0.));
#467=CARTESIAN_POINT('Origin',(95.9454749845977,-32.301969608174,0.));
#468=CARTESIAN_POINT('',(95.9454749845977,-32.301969608174,0.));
#469=CARTESIAN_POINT('',(95.9454749845977,-32.301969608174,0.));
#470=CARTESIAN_POINT('',(95.9454749845977,-32.301969608174,3.175));
#471=CARTESIAN_POINT('',(95.9454749845977,-32.301969608174,3.175));
#472=CARTESIAN_POINT('',(95.9454749845977,-32.301969608174,0.));
#473=CARTESIAN_POINT('Origin',(96.1198963585397,-31.2665580067748,0.));
#474=CARTESIAN_POINT('Origin',(96.1198963585397,-31.2665580067748,0.));
#475=CARTESIAN_POINT('Origin',(96.1198963585397,-31.2665580067748,3.175));
#476=CARTESIAN_POINT('Origin',(98.1198963585397,-63.4415580067748,0.));
#477=CARTESIAN_POINT('',(96.6466963585397,-63.4415580067748,3.175));
#478=CARTESIAN_POINT('Origin',(98.1198963585397,-63.4415580067748,3.175));
#479=CARTESIAN_POINT('',(96.6466963585397,-63.4415580067748,0.));
#480=CARTESIAN_POINT('',(96.6466963585397,-63.4415580067748,0.));
#481=CARTESIAN_POINT('Origin',(98.1198963585397,-63.4415580067748,0.));
#482=CARTESIAN_POINT('Origin',(86.1198963585397,-63.4415580067748,0.));
#483=CARTESIAN_POINT('',(84.6466963585397,-63.4415580067748,3.175));
#484=CARTESIAN_POINT('Origin',(86.1198963585397,-63.4415580067748,3.175));
#485=CARTESIAN_POINT('',(84.6466963585397,-63.4415580067748,0.));
#486=CARTESIAN_POINT('',(84.6466963585397,-63.4415580067748,0.));
#487=CARTESIAN_POINT('Origin',(86.1198963585397,-63.4415580067748,0.));
#488=CARTESIAN_POINT('Origin',(88.1218526581741,-56.2027025684474,0.));
#489=CARTESIAN_POINT('',(88.1218526581741,-56.2027025684474,0.));
#490=CARTESIAN_POINT('',(95.9455338991202,-56.2172792219406,0.));
#491=CARTESIAN_POINT('',(95.9455338991202,-56.2172792219406,0.));
#492=CARTESIAN_POINT('',(95.9455338991202,-56.2172792219406,3.175));
#493=CARTESIAN_POINT('',(95.9455338991202,-56.2172792219406,0.));
#494=CARTESIAN_POINT('',(88.1218526581741,-56.2027025684474,3.175));
#495=CARTESIAN_POINT('',(95.9455338991202,-56.2172792219406,3.175));
#496=CARTESIAN_POINT('',(88.1218526581741,-56.2027025684474,0.));
#497=CARTESIAN_POINT('Origin',(88.1198963591978,-57.2527007460145,0.));
#498=CARTESIAN_POINT('',(88.1218540046103,-58.3026989210722,0.));
#499=CARTESIAN_POINT('Origin',(88.1198963591978,-57.2527007460145,0.));
#500=CARTESIAN_POINT('',(88.1218540046103,-58.3026989210722,3.175));
#501=CARTESIAN_POINT('Origin',(88.1198963591978,-57.2527007460145,3.175));
#502=CARTESIAN_POINT('',(88.1218540046103,-58.3026989210722,0.));
#503=CARTESIAN_POINT('Origin',(95.9454749852558,-58.2881123474138,0.));
#504=CARTESIAN_POINT('',(95.9454749852558,-58.2881123474138,0.));
#505=CARTESIAN_POINT('',(95.9454749852558,-58.2881123474138,0.));
#506=CARTESIAN_POINT('',(95.9454749852558,-58.2881123474138,3.175));
#507=CARTESIAN_POINT('',(95.9454749852558,-58.2881123474138,3.175));
#508=CARTESIAN_POINT('',(95.9454749852558,-58.2881123474138,0.));
#509=CARTESIAN_POINT('Origin',(96.1198963591978,-57.2527007460145,0.));
#510=CARTESIAN_POINT('Origin',(96.1198963591978,-57.2527007460145,0.));
#511=CARTESIAN_POINT('Origin',(96.1198963591978,-57.2527007460145,3.175));
#512=CARTESIAN_POINT('Origin',(82.1198963585397,-28.2665580067747,0.));
#513=CARTESIAN_POINT('',(82.1198963585397,-66.6165580067748,0.));
#514=CARTESIAN_POINT('',(82.1198963585397,-28.2665580067747,0.));
#515=CARTESIAN_POINT('',(82.1198963585397,-66.6165580067748,0.));
#516=CARTESIAN_POINT('',(82.1198963585397,-66.6165580067748,3.175));
#517=CARTESIAN_POINT('',(82.1198963585397,-66.6165580067748,0.));
#518=CARTESIAN_POINT('',(82.1198963585397,-28.2665580067747,3.175));
#519=CARTESIAN_POINT('',(82.1198963585397,-66.6165580067748,3.175));
#520=CARTESIAN_POINT('',(82.1198963585397,-28.2665580067747,0.));
#521=CARTESIAN_POINT('Origin',(102.11989635854,-28.2665580067747,0.));
#522=CARTESIAN_POINT('',(102.11989635854,-28.2665580067747,0.));
#523=CARTESIAN_POINT('',(82.1198963585397,-28.2665580067747,0.));
#524=CARTESIAN_POINT('',(102.11989635854,-28.2665580067747,3.175));
#525=CARTESIAN_POINT('',(82.1198963585397,-28.2665580067747,3.175));
#526=CARTESIAN_POINT('',(102.11989635854,-28.2665580067747,0.));
#527=CARTESIAN_POINT('Origin',(102.11989635854,-66.6165580067748,0.));
#528=CARTESIAN_POINT('',(102.11989635854,-66.6165580067748,0.));
#529=CARTESIAN_POINT('',(102.11989635854,-28.2665580067747,0.));
#530=CARTESIAN_POINT('',(102.11989635854,-66.6165580067748,3.175));
#531=CARTESIAN_POINT('',(102.11989635854,-28.2665580067747,3.175));
#532=CARTESIAN_POINT('',(102.11989635854,-66.6165580067748,0.));
#533=CARTESIAN_POINT('Origin',(82.1198963585397,-66.6165580067748,0.));
#534=CARTESIAN_POINT('',(102.11989635854,-66.6165580067748,0.));
#535=CARTESIAN_POINT('',(102.11989635854,-66.6165580067748,3.175));
#536=CARTESIAN_POINT('Origin',(92.1198963585397,-47.4415580067748,3.175));
#537=CARTESIAN_POINT('Origin',(92.1198963585397,-47.4415580067748,0.));
#538=UNCERTAINTY_MEASURE_WITH_UNIT(LENGTH_MEASURE(0.01),#542,
'DISTANCE_ACCURACY_VALUE',
'Maximum model space distance between geometric entities at asserted c
onnectivities');
#539=UNCERTAINTY_MEASURE_WITH_UNIT(LENGTH_MEASURE(0.01),#542,
'DISTANCE_ACCURACY_VALUE',
'Maximum model space distance between geometric entities at asserted c
onnectivities');
#540=(
GEOMETRIC_REPRESENTATION_CONTEXT(3)
GLOBAL_UNCERTAINTY_ASSIGNED_CONTEXT((#538))
GLOBAL_UNIT_ASSIGNED_CONTEXT((#542,#544,#545))
REPRESENTATION_CONTEXT('','3D')
);
#541=(
GEOMETRIC_REPRESENTATION_CONTEXT(3)
GLOBAL_UNCERTAINTY_ASSIGNED_CONTEXT((#539))
GLOBAL_UNIT_ASSIGNED_CONTEXT((#542,#544,#545))
REPRESENTATION_CONTEXT('','3D')
);
#542=(
LENGTH_UNIT()
NAMED_UNIT(*)
SI_UNIT(.MILLI.,.METRE.)
);
#543=(
LENGTH_UNIT()
NAMED_UNIT(*)
SI_UNIT($,.METRE.)
);
#544=(
NAMED_UNIT(*)
PLANE_ANGLE_UNIT()
SI_UNIT($,.RADIAN.)
);
#545=(
NAMED_UNIT(*)
SI_UNIT($,.STERADIAN.)
SOLID_ANGLE_UNIT()
);
#546=SHAPE_DEFINITION_REPRESENTATION(#547,#548);
#547=PRODUCT_DEFINITION_SHAPE('',$,#550);
#548=SHAPE_REPRESENTATION('',(#334),#540);
#549=PRODUCT_DEFINITION_CONTEXT('part definition',#554,'design');
#550=PRODUCT_DEFINITION('small tab 2','small tab 2',#551,#549);
#551=PRODUCT_DEFINITION_FORMATION('',$,#556);
#552=PRODUCT_RELATED_PRODUCT_CATEGORY('small tab 2','small tab 2',(#556));
#553=APPLICATION_PROTOCOL_DEFINITION('international standard',
'automotive_design',2009,#554);
#554=APPLICATION_CONTEXT(
'Core Data for Automotive Mechanical Design Process');
#555=PRODUCT_CONTEXT('part definition',#554,'mechanical');
#556=PRODUCT('small tab 2','small tab 2',$,(#555));
#557=PRESENTATION_STYLE_ASSIGNMENT((#558));
#558=SURFACE_STYLE_USAGE(.BOTH.,#559);
#559=SURFACE_SIDE_STYLE('',(#560));
#560=SURFACE_STYLE_FILL_AREA(#561);
#561=FILL_AREA_STYLE('Steel - Satin',(#562));
#562=FILL_AREA_STYLE_COLOUR('Steel - Satin',#563);
#563=COLOUR_RGB('Steel - Satin',0.627450980392157,0.627450980392157,0.627450980392157);
ENDSEC;
END-ISO-10303-21;
