0
SECTION
2
HEADER
9
$INSUNITS
70
4
9
$ACADVER
1
AC1014
9
$HANDSEED
5
FFFF
0
ENDSEC
0
SECTION
2
TABLES
0
TABLE
2
VPORT
5
8
100
AcDbSymbolTable
0
ENDTAB
0
TABLE
2
LTYPE
5
5
100
AcDbSymbolTable
0
LTYPE
5
14
100
AcDbSymbolTableRecord
100
AcDbLinetypeTableRecord
2
BYBLOCK
70
0
0
LTYPE
5
15
100
AcDbSymbolTableRecord
100
AcDbLinetypeTableRecord
2
BYLAYER
70
0
0
ENDTAB
0
TABLE
2
LAYER
5
2
100
AcDbSymbolTable
70
2
0
LAYER
5
50
100
AcDbSymbolTableRecord
100
AcDbLayerTableRecord
2
0
70
0
6
CONTINUOUS
0
ENDTAB
0
TABLE
2
STYLE
5
3
100
AcDbSymbolTable
70
1
0
STYLE
5
11
100
AcDbSymbolTableRecord
100
AcDbTextStyleTableRecord
2
STANDARD
70
0
0
ENDTAB
0
TABLE
2
VIEW
5
6
100
AcDbSymbolTable
70
0
0
ENDTAB
0
TABLE
2
UCS
5
7
100
AcDbSymbolTable
70
0
0
ENDTAB
0
TABLE
2
APPID
5
9
100
AcDbSymbolTable
70
2
0
APPID
5
12
100
AcDbSymbolTableRecord
100
AcDbRegAppTableRecord
2
ACAD
70
0
0
ENDTAB
0
TABLE
2
DIMSTYLE
5
A
100
AcDbSymbolTable
70
1
0
ENDTAB
0
TABLE
2
BLOCK_RECORD
5
1
100
AcDbSymbolTable
70
1
0
BLOCK_RECORD
5
1F
100
AcDbSymbolTableRecord
100
AcDbBlockTableRecord
2
*MODEL_SPACE
0
BLOCK_RECORD
5
1B
100
AcDbSymbolTableRecord
100
AcDbBlockTableRecord
2
*PAPER_SPACE
0
ENDTAB
0
ENDSEC
0
SECTION
2
BLOCKS
0
BLOCK
5
20
100
AcDbEntity
100
AcDbBlockBegin
2
*MODEL_SPACE
0
ENDBLK
5
21
100
AcDbEntity
100
AcDbBlockEnd
0
BLOCK
5
1C
100
AcDbEntity
100
AcDbBlockBegin
2
*PAPER_SPACE
0
ENDBLK
5
1D
100
AcDbEntity
100
AcDbBlockEnd
0
ENDSEC
0
SECTION
2
ENTITIES
0
LINE
5
100
100
AcDbEntity
8
0
100
AcDbLine
10
0.86602540378443893
20
0
30
0
11
4.7113248654051869
21
6.9388939039072284e-17
31
0
0
LINE
5
101
100
AcDbEntity
8
0
100
AcDbLine
10
0.43301270189221969
20
0.75000000000000011
30
0
11
2.7424137786507243
21
4.75
31
0
0
LINE
5
102
100
AcDbEntity
8
0
100
AcDbLine
10
0.86602540378443893
20
3.1000000000000005
30
0
11
4.7113248654051869
21
3.1000000000000005
31
0
0
LINE
5
103
100
AcDbEntity
8
0
100
AcDbLine
10
0.43301270189221969
20
3.8500000000000005
30
0
11
2.7424137786507243
21
7.8500000000000014
31
0
0
LINE
5
104
100
AcDbEntity
8
0
100
AcDbLine
10
3.1754264805429431
20
8.1000000000000014
30
0
11
7.0207259421636925
21
8.1000000000000014
31
0
0
LINE
5
105
100
AcDbEntity
8
0
100
AcDbLine
10
3.1754264805429431
20
5
30
0
11
7.0207259421636925
21
5
31
0
0
CIRCLE
5
106
100
AcDbEntity
8
0
100
AcDbCircle
10
3.9433756729740654
20
2.5
30
0
40
0.59999999999999998
210
0
220
-0
230
1
0
LINE
5
107
100
AcDbEntity
8
0
100
AcDbLine
10
10
20
0
30
0
11
15
21
0
31
0
0
LINE
5
108
100
AcDbEntity
8
0
100
AcDbLine
10
0
20
0
30
0
11
0
21
8.1000000000000014
31
0
0
LWPOLYLINE
5
109
100
AcDbEntity
8
0
100
AcDbPolyline
90
10
70
1
43
0.0
10
0
20
8.1000000000000014
10
-2
20
8.1000000000000014
10
-2
20
0
10
-2
20
-2
10
50.887745386688664
20
-2.0000000000000084
10
484.88675134594814
20
-2.0000000000000773
10
484.88675134594814
20
8.1000000000000014
10
482.88675134594814
20
8.1000000000000014
10
3.1754264805429431
20
8.1000000000000014
10
2.88675134594813
20
8.1000000000000014
0
LINE
5
110
100
AcDbEntity
8
0
100
AcDbLine
10
2.88675134594813
20
8.1000000000000014
30
0
11
0
21
3.1000000000000014
31
0
0
LINE
5
111
100
AcDbEntity
8
0
100
AcDbLine
10
2.8867513459481309
20
5
30
0
11
0
21
5
31
0
0
LINE
5
112
100
AcDbEntity
8
0
100
AcDbLine
10
2.8867513459481309
20
5
30
0
11
0
21
0
31
0
0
LINE
5
113
100
AcDbEntity
8
0
100
AcDbLine
10
0.59999999999999998
20
-1.8369701987210294e-17
30
0
11
0.59999999999999998
21
-1.1000000000000001
31
0
0
LINE
5
114
100
AcDbEntity
8
0
100
AcDbLine
10
1.7000000000000004
20
-1.8369701987210294e-17
30
0
11
1.7000000000000004
21
-1.1000000000000001
31
0
0
LINE
5
115
100
AcDbEntity
8
0
100
AcDbLine
10
2.8000000000000003
20
-1.8369701987210294e-17
30
0
11
2.8000000000000003
21
-1.1000000000000001
31
0
0
LINE
5
116
100
AcDbEntity
8
0
100
AcDbLine
10
3.9000000000000008
20
-1.8369701987210294e-17
30
0
11
3.9000000000000008
21
-1.1000000000000001
31
0
0
LINE
5
117
100
AcDbEntity
8
0
100
AcDbLine
10
5
20
-1.8369701987210294e-17
30
0
11
5
21
-1.1000000000000001
31
0
0
LINE
5
118
100
AcDbEntity
8
0
100
AcDbLine
10
0.59999999999999998
20
-1.1000000000000001
30
0
11
5
21
-1.1000000000000001
31
0
0
LINE
5
119
100
AcDbEntity
8
0
100
AcDbLine
10
5.6000000000000005
20
-1.8369701987210294e-17
30
0
11
5.6000000000000005
21
-1.1000000000000001
31
0
0
LINE
5
120
100
AcDbEntity
8
0
100
AcDbLine
10
10
20
-1.8369701987210294e-17
30
0
11
10
21
-1.1000000000000001
31
0
0
LINE
5
121
100
AcDbEntity
8
0
100
AcDbLine
10
8.9000000000000021
20
-1.8369701987210294e-17
30
0
11
8.9000000000000021
21
-1.1000000000000001
31
0
0
LINE
5
122
100
AcDbEntity
8
0
100
AcDbLine
10
7.8000000000000007
20
-1.8369701987210294e-17
30
0
11
7.8000000000000007
21
-1.1000000000000001
31
0
0
LINE
5
123
100
AcDbEntity
8
0
100
AcDbLine
10
5.6000000000000005
20
-1.1000000000000001
30
0
11
10
21
-1.1000000000000001
31
0
0
LINE
5
124
100
AcDbEntity
8
0
100
AcDbLine
10
6.7000000000000002
20
-1.8369701987210294e-17
30
0
11
6.7000000000000002
21
-1.1000000000000001
31
0
0
LINE
5
125
100
AcDbEntity
8
0
100
AcDbLine
10
10.600000000000001
20
-1.8369701987210294e-17
30
0
11
10.600000000000001
21
-1.1000000000000001
31
0
0
LINE
5
126
100
AcDbEntity
8
0
100
AcDbLine
10
15.000000000000002
20
-1.8369701987210294e-17
30
0
11
15.000000000000002
21
-1.1000000000000001
31
0
0
LINE
5
127
100
AcDbEntity
8
0
100
AcDbLine
10
13.900000000000002
20
-1.8369701987210294e-17
30
0
11
13.900000000000002
21
-1.1000000000000001
31
0
0
LINE
5
128
100
AcDbEntity
8
0
100
AcDbLine
10
12.800000000000001
20
-1.8369701987210294e-17
30
0
11
12.800000000000001
21
-1.1000000000000001
31
0
0
LINE
5
129
100
AcDbEntity
8
0
100
AcDbLine
10
10.600000000000001
20
-1.1000000000000001
30
0
11
15.000000000000002
21
-1.1000000000000001
31
0
0
LINE
5
130
100
AcDbEntity
8
0
100
AcDbLine
10
11.700000000000001
20
-1.8369701987210294e-17
30
0
11
11.700000000000001
21
-1.1000000000000001
31
0
0
LINE
5
131
100
AcDbEntity
8
0
100
AcDbLine
10
15.600000000000001
20
-1.8369701987210294e-17
30
0
11
15.600000000000001
21
-1.1000000000000001
31
0
0
LINE
5
132
100
AcDbEntity
8
0
100
AcDbLine
10
20
20
-1.8369701987210294e-17
30
0
11
20
21
-1.1000000000000001
31
0
0
LINE
5
133
100
AcDbEntity
8
0
100
AcDbLine
10
18.900000000000002
20
-1.8369701987210294e-17
30
0
11
18.900000000000002
21
-1.1000000000000001
31
0
0
LINE
5
134
100
AcDbEntity
8
0
100
AcDbLine
10
17.800000000000001
20
-1.8369701987210294e-17
30
0
11
17.800000000000001
21
-1.1000000000000001
31
0
0
LINE
5
135
100
AcDbEntity
8
0
100
AcDbLine
10
15.600000000000001
20
-1.1000000000000001
30
0
11
20
21
-1.1000000000000001
31
0
0
LINE
5
136
100
AcDbEntity
8
0
100
AcDbLine
10
16.700000000000003
20
-1.8369701987210294e-17
30
0
11
16.700000000000003
21
-1.1000000000000001
31
0
0
LINE
5
137
100
AcDbEntity
8
0
100
AcDbLine
10
20.599999999999994
20
-1.8369701987210294e-17
30
0
11
20.599999999999994
21
-1.1000000000000001
31
0
0
LINE
5
138
100
AcDbEntity
8
0
100
AcDbLine
10
25
20
-1.8369701987210294e-17
30
0
11
25
21
-1.1000000000000001
31
0
0
LINE
5
139
100
AcDbEntity
8
0
100
AcDbLine
10
23.899999999999999
20
-1.8369701987210294e-17
30
0
11
23.899999999999999
21
-1.1000000000000001
31
0
0
LINE
5
140
100
AcDbEntity
8
0
100
AcDbLine
10
22.799999999999997
20
-1.8369701987210294e-17
30
0
11
22.799999999999997
21
-1.1000000000000001
31
0
0
LINE
5
141
100
AcDbEntity
8
0
100
AcDbLine
10
20.599999999999994
20
-1.1000000000000001
30
0
11
25
21
-1.1000000000000001
31
0
0
LINE
5
142
100
AcDbEntity
8
0
100
AcDbLine
10
21.699999999999999
20
-1.8369701987210294e-17
30
0
11
21.699999999999999
21
-1.1000000000000001
31
0
0
LINE
5
143
100
AcDbEntity
8
0
100
AcDbLine
10
25.599999999999994
20
-1.8369701987210294e-17
30
0
11
25.599999999999994
21
-1.1000000000000001
31
0
0
LINE
5
144
100
AcDbEntity
8
0
100
AcDbLine
10
30
20
-1.8369701987210294e-17
30
0
11
30
21
-1.1000000000000001
31
0
0
LINE
5
145
100
AcDbEntity
8
0
100
AcDbLine
10
28.899999999999999
20
-1.8369701987210294e-17
30
0
11
28.899999999999999
21
-1.1000000000000001
31
0
0
LINE
5
146
100
AcDbEntity
8
0
100
AcDbLine
10
27.799999999999997
20
-1.8369701987210294e-17
30
0
11
27.799999999999997
21
-1.1000000000000001
31
0
0
LINE
5
147
100
AcDbEntity
8
0
100
AcDbLine
10
25.599999999999994
20
-1.1000000000000001
30
0
11
30
21
-1.1000000000000001
31
0
0
LINE
5
148
100
AcDbEntity
8
0
100
AcDbLine
10
26.699999999999999
20
-1.8369701987210294e-17
30
0
11
26.699999999999999
21
-1.1000000000000001
31
0
0
LINE
5
149
100
AcDbEntity
8
0
100
AcDbLine
10
30.599999999999994
20
-1.8369701987210294e-17
30
0
11
30.599999999999994
21
-1.1000000000000001
31
0
0
LINE
5
150
100
AcDbEntity
8
0
100
AcDbLine
10
35
20
-1.8369701987210294e-17
30
0
11
35
21
-1.1000000000000001
31
0
0
LINE
5
151
100
AcDbEntity
8
0
100
AcDbLine
10
33.899999999999999
20
-1.8369701987210294e-17
30
0
11
33.899999999999999
21
-1.1000000000000001
31
0
0
LINE
5
152
100
AcDbEntity
8
0
100
AcDbLine
10
32.799999999999997
20
-1.8369701987210294e-17
30
0
11
32.799999999999997
21
-1.1000000000000001
31
0
0
LINE
5
153
100
AcDbEntity
8
0
100
AcDbLine
10
30.599999999999994
20
-1.1000000000000001
30
0
11
35
21
-1.1000000000000001
31
0
0
LINE
5
154
100
AcDbEntity
8
0
100
AcDbLine
10
31.699999999999999
20
-1.8369701987210294e-17
30
0
11
31.699999999999999
21
-1.1000000000000001
31
0
0
LINE
5
155
100
AcDbEntity
8
0
100
AcDbLine
10
35.599999999999994
20
-1.8369701987210294e-17
30
0
11
35.599999999999994
21
-1.1000000000000001
31
0
0
LINE
5
156
100
AcDbEntity
8
0
100
AcDbLine
10
40
20
-1.8369701987210294e-17
30
0
11
40
21
-1.1000000000000001
31
0
0
LINE
5
157
100
AcDbEntity
8
0
100
AcDbLine
10
38.899999999999999
20
-1.8369701987210294e-17
30
0
11
38.899999999999999
21
-1.1000000000000001
31
0
0
LINE
5
158
100
AcDbEntity
8
0
100
AcDbLine
10
37.799999999999997
20
-1.8369701987210294e-17
30
0
11
37.799999999999997
21
-1.1000000000000001
31
0
0
LINE
5
159
100
AcDbEntity
8
0
100
AcDbLine
10
35.599999999999994
20
-1.1000000000000001
30
0
11
40
21
-1.1000000000000001
31
0
0
LINE
5
160
100
AcDbEntity
8
0
100
AcDbLine
10
36.700000000000003
20
-1.8369701987210294e-17
30
0
11
36.700000000000003
21
-1.1000000000000001
31
0
0
LINE
5
161
100
AcDbEntity
8
0
100
AcDbLine
10
35
20
0
30
0
11
40
21
0
31
0
0
LINE
5
162
100
AcDbEntity
8
0
100
AcDbLine
10
53.900000000000006
20
-1.8369701987210294e-17
30
0
11
53.900000000000006
21
-1.1000000000000001
31
0
0
LINE
5
163
100
AcDbEntity
8
0
100
AcDbLine
10
60.599999999999994
20
-1.8369701987210294e-17
30
0
11
60.599999999999994
21
-1.1000000000000001
31
0
0
LINE
5
164
100
AcDbEntity
8
0
100
AcDbLine
10
60.000000000000007
20
-1.8369701987210294e-17
30
0
11
60.000000000000007
21
-1.1000000000000001
31
0
0
LINE
5
165
100
AcDbEntity
8
0
100
AcDbLine
10
65.000000000000014
20
-1.8369701987210294e-17
30
0
11
65.000000000000014
21
-1.1000000000000001
31
0
0
LINE
5
166
100
AcDbEntity
8
0
100
AcDbLine
10
55.000000000000007
20
-1.8369701987210294e-17
30
0
11
55.000000000000007
21
-1.1000000000000001
31
0
0
LINE
5
167
100
AcDbEntity
8
0
100
AcDbLine
10
67.799999999999997
20
-1.8369701987210294e-17
30
0
11
67.799999999999997
21
-1.1000000000000001
31
0
0
LINE
5
168
100
AcDbEntity
8
0
100
AcDbLine
10
57.800000000000004
20
-1.8369701987210294e-17
30
0
11
57.800000000000004
21
-1.1000000000000001
31
0
0
LINE
5
169
100
AcDbEntity
8
0
100
AcDbLine
10
50.600000000000009
20
-1.1000000000000001
30
0
11
55.000000000000007
21
-1.1000000000000001
31
0
0
LINE
5
170
100
AcDbEntity
8
0
100
AcDbLine
10
51.70000000000001
20
-1.8369701987210294e-17
30
0
11
51.70000000000001
21
-1.1000000000000001
31
0
0
LINE
5
171
100
AcDbEntity
8
0
100
AcDbLine
10
56.70000000000001
20
-1.8369701987210294e-17
30
0
11
56.70000000000001
21
-1.1000000000000001
31
0
0
LINE
5
172
100
AcDbEntity
8
0
100
AcDbLine
10
55.600000000000009
20
-1.1000000000000001
30
0
11
60.000000000000007
21
-1.1000000000000001
31
0
0
LINE
5
173
100
AcDbEntity
8
0
100
AcDbLine
10
52.800000000000004
20
-1.8369701987210294e-17
30
0
11
52.800000000000004
21
-1.1000000000000001
31
0
0
LINE
5
174
100
AcDbEntity
8
0
100
AcDbLine
10
60.599999999999994
20
-1.1000000000000001
30
0
11
65.000000000000014
21
-1.1000000000000001
31
0
0
LINE
5
175
100
AcDbEntity
8
0
100
AcDbLine
10
55.600000000000009
20
-1.8369701987210294e-17
30
0
11
55.600000000000009
21
-1.1000000000000001
31
0
0
LINE
5
176
100
AcDbEntity
8
0
100
AcDbLine
10
58.900000000000006
20
-1.8369701987210294e-17
30
0
11
58.900000000000006
21
-1.1000000000000001
31
0
0
LINE
5
177
100
AcDbEntity
8
0
100
AcDbLine
10
66.700000000000003
20
-1.8369701987210294e-17
30
0
11
66.700000000000003
21
-1.1000000000000001
31
0
0
LINE
5
178
100
AcDbEntity
8
0
100
AcDbLine
10
62.800000000000004
20
-1.8369701987210294e-17
30
0
11
62.800000000000004
21
-1.1000000000000001
31
0
0
LINE
5
179
100
AcDbEntity
8
0
100
AcDbLine
10
65.599999999999994
20
-1.8369701987210294e-17
30
0
11
65.599999999999994
21
-1.1000000000000001
31
0
0
LINE
5
180
100
AcDbEntity
8
0
100
AcDbLine
10
65.599999999999994
20
-1.1000000000000001
30
0
11
70.000000000000014
21
-1.1000000000000001
31
0
0
LINE
5
181
100
AcDbEntity
8
0
100
AcDbLine
10
50.600000000000009
20
-1.8369701987210294e-17
30
0
11
50.600000000000009
21
-1.1000000000000001
31
0
0
LINE
5
182
100
AcDbEntity
8
0
100
AcDbLine
10
47.800000000000004
20
-1.8369701987210294e-17
30
0
11
47.800000000000004
21
-1.1000000000000001
31
0
0
LINE
5
183
100
AcDbEntity
8
0
100
AcDbLine
10
68.900000000000006
20
-1.8369701987210294e-17
30
0
11
68.900000000000006
21
-1.1000000000000001
31
0
0
LINE
5
184
100
AcDbEntity
8
0
100
AcDbLine
10
50
20
-1.8369701987210294e-17
30
0
11
50
21
-1.1000000000000001
31
0
0
LINE
5
185
100
AcDbEntity
8
0
100
AcDbLine
10
70.000000000000014
20
-1.8369701987210294e-17
30
0
11
70.000000000000014
21
-1.1000000000000001
31
0
0
LINE
5
186
100
AcDbEntity
8
0
100
AcDbLine
10
63.900000000000006
20
-1.8369701987210294e-17
30
0
11
63.900000000000006
21
-1.1000000000000001
31
0
0
LINE
5
187
100
AcDbEntity
8
0
100
AcDbLine
10
46.700000000000003
20
-1.8369701987210294e-17
30
0
11
46.700000000000003
21
-1.1000000000000001
31
0
0
LINE
5
188
100
AcDbEntity
8
0
100
AcDbLine
10
61.70000000000001
20
-1.8369701987210294e-17
30
0
11
61.70000000000001
21
-1.1000000000000001
31
0
0
LINE
5
189
100
AcDbEntity
8
0
100
AcDbLine
10
70.599999999999994
20
-1.8369701987210294e-17
30
0
11
70.599999999999994
21
-1.1000000000000001
31
0
0
LINE
5
190
100
AcDbEntity
8
0
100
AcDbLine
10
42.800000000000004
20
-1.8369701987210294e-17
30
0
11
42.800000000000004
21
-1.1000000000000001
31
0
0
LINE
5
191
100
AcDbEntity
8
0
100
AcDbLine
10
75.599999999999994
20
-1.8369701987210294e-17
30
0
11
75.599999999999994
21
-1.1000000000000001
31
0
0
LINE
5
192
100
AcDbEntity
8
0
100
AcDbLine
10
71.700000000000003
20
-1.8369701987210294e-17
30
0
11
71.700000000000003
21
-1.1000000000000001
31
0
0
LINE
5
193
100
AcDbEntity
8
0
100
AcDbLine
10
40.600000000000009
20
-1.1000000000000001
30
0
11
45
21
-1.1000000000000001
31
0
0
LINE
5
194
100
AcDbEntity
8
0
100
AcDbLine
10
45.600000000000009
20
-1.8369701987210294e-17
30
0
11
45.600000000000009
21
-1.1000000000000001
31
0
0
LINE
5
195
100
AcDbEntity
8
0
100
AcDbLine
10
77.799999999999997
20
-1.8369701987210294e-17
30
0
11
77.799999999999997
21
-1.1000000000000001
31
0
0
LINE
5
196
100
AcDbEntity
8
0
100
AcDbLine
10
78.899999999999991
20
-1.8369701987210294e-17
30
0
11
78.899999999999991
21
-1.1000000000000001
31
0
0
LINE
5
197
100
AcDbEntity
8
0
100
AcDbLine
10
45.600000000000009
20
-1.1000000000000001
30
0
11
50
21
-1.1000000000000001
31
0
0
LINE
5
198
100
AcDbEntity
8
0
100
AcDbLine
10
80
20
-1.8369701987210294e-17
30
0
11
80
21
-1.1000000000000001
31
0
0
LINE
5
199
100
AcDbEntity
8
0
100
AcDbLine
10
75.599999999999994
20
-1.1000000000000001
30
0
11
80
21
-1.1000000000000001
31
0
0
LINE
5
200
100
AcDbEntity
8
0
100
AcDbLine
10
45
20
-1.8369701987210294e-17
30
0
11
45
21
-1.1000000000000001
31
0
0
LINE
5
201
100
AcDbEntity
8
0
100
AcDbLine
10
70.599999999999994
20
-1.1000000000000001
30
0
11
75.000000000000014
21
-1.1000000000000001
31
0
0
LINE
5
202
100
AcDbEntity
8
0
100
AcDbLine
10
43.900000000000006
20
-1.8369701987210294e-17
30
0
11
43.900000000000006
21
-1.1000000000000001
31
0
0
LINE
5
203
100
AcDbEntity
8
0
100
AcDbLine
10
75.000000000000014
20
-1.8369701987210294e-17
30
0
11
75.000000000000014
21
-1.1000000000000001
31
0
0
LINE
5
204
100
AcDbEntity
8
0
100
AcDbLine
10
76.700000000000003
20
-1.8369701987210294e-17
30
0
11
76.700000000000003
21
-1.1000000000000001
31
0
0
LINE
5
205
100
AcDbEntity
8
0
100
AcDbLine
10
72.799999999999997
20
-1.8369701987210294e-17
30
0
11
72.799999999999997
21
-1.1000000000000001
31
0
0
LINE
5
206
100
AcDbEntity
8
0
100
AcDbLine
10
41.700000000000003
20
-1.8369701987210294e-17
30
0
11
41.700000000000003
21
-1.1000000000000001
31
0
0
LINE
5
207
100
AcDbEntity
8
0
100
AcDbLine
10
73.900000000000006
20
-1.8369701987210294e-17
30
0
11
73.900000000000006
21
-1.1000000000000001
31
0
0
LINE
5
208
100
AcDbEntity
8
0
100
AcDbLine
10
40.600000000000009
20
-1.8369701987210294e-17
30
0
11
40.600000000000009
21
-1.1000000000000001
31
0
0
LINE
5
209
100
AcDbEntity
8
0
100
AcDbLine
10
48.900000000000006
20
-1.8369701987210294e-17
30
0
11
48.900000000000006
21
-1.1000000000000001
31
0
0
LINE
5
210
100
AcDbEntity
8
0
100
AcDbLine
10
93.899999999999991
20
-1.8369701987210294e-17
30
0
11
93.899999999999991
21
-1.1000000000000001
31
0
0
LINE
5
211
100
AcDbEntity
8
0
100
AcDbLine
10
100.59999999999999
20
-1.8369701987210294e-17
30
0
11
100.59999999999999
21
-1.1000000000000001
31
0
0
LINE
5
212
100
AcDbEntity
8
0
100
AcDbLine
10
100
20
-1.8369701987210294e-17
30
0
11
100
21
-1.1000000000000001
31
0
0
LINE
5
213
100
AcDbEntity
8
0
100
AcDbLine
10
105
20
-1.8369701987210294e-17
30
0
11
105
21
-1.1000000000000001
31
0
0
LINE
5
214
100
AcDbEntity
8
0
100
AcDbLine
10
95
20
-1.8369701987210294e-17
30
0
11
95
21
-1.1000000000000001
31
0
0
LINE
5
215
100
AcDbEntity
8
0
100
AcDbLine
10
107.8
20
-1.8369701987210294e-17
30
0
11
107.8
21
-1.1000000000000001
31
0
0
LINE
5
216
100
AcDbEntity
8
0
100
AcDbLine
10
97.799999999999997
20
-1.8369701987210294e-17
30
0
11
97.799999999999997
21
-1.1000000000000001
31
0
0
LINE
5
217
100
AcDbEntity
8
0
100
AcDbLine
10
90.599999999999994
20
-1.1000000000000001
30
0
11
95
21
-1.1000000000000001
31
0
0
LINE
5
218
100
AcDbEntity
8
0
100
AcDbLine
10
91.700000000000003
20
-1.8369701987210294e-17
30
0
11
91.700000000000003
21
-1.1000000000000001
31
0
0
LINE
5
219
100
AcDbEntity
8
0
100
AcDbLine
10
96.700000000000003
20
-1.8369701987210294e-17
30
0
11
96.700000000000003
21
-1.1000000000000001
31
0
0
LINE
5
220
100
AcDbEntity
8
0
100
AcDbLine
10
95.599999999999994
20
-1.1000000000000001
30
0
11
100
21
-1.1000000000000001
31
0
0
LINE
5
221
100
AcDbEntity
8
0
100
AcDbLine
10
92.799999999999997
20
-1.8369701987210294e-17
30
0
11
92.799999999999997
21
-1.1000000000000001
31
0
0
LINE
5
222
100
AcDbEntity
8
0
100
AcDbLine
10
100.59999999999999
20
-1.1000000000000001
30
0
11
105
21
-1.1000000000000001
31
0
0
LINE
5
223
100
AcDbEntity
8
0
100
AcDbLine
10
95.599999999999994
20
-1.8369701987210294e-17
30
0
11
95.599999999999994
21
-1.1000000000000001
31
0
0
LINE
5
224
100
AcDbEntity
8
0
100
AcDbLine
10
98.899999999999991
20
-1.8369701987210294e-17
30
0
11
98.899999999999991
21
-1.1000000000000001
31
0
0
LINE
5
225
100
AcDbEntity
8
0
100
AcDbLine
10
106.7
20
-1.8369701987210294e-17
30
0
11
106.7
21
-1.1000000000000001
31
0
0
LINE
5
226
100
AcDbEntity
8
0
100
AcDbLine
10
102.8
20
-1.8369701987210294e-17
30
0
11
102.8
21
-1.1000000000000001
31
0
0
LINE
5
227
100
AcDbEntity
8
0
100
AcDbLine
10
105.59999999999999
20
-1.8369701987210294e-17
30
0
11
105.59999999999999
21
-1.1000000000000001
31
0
0
LINE
5
228
100
AcDbEntity
8
0
100
AcDbLine
10
105.59999999999999
20
-1.1000000000000001
30
0
11
110
21
-1.1000000000000001
31
0
0
LINE
5
229
100
AcDbEntity
8
0
100
AcDbLine
10
90.599999999999994
20
-1.8369701987210294e-17
30
0
11
90.599999999999994
21
-1.1000000000000001
31
0
0
LINE
5
230
100
AcDbEntity
8
0
100
AcDbLine
10
87.799999999999997
20
-1.8369701987210294e-17
30
0
11
87.799999999999997
21
-1.1000000000000001
31
0
0
LINE
5
231
100
AcDbEntity
8
0
100
AcDbLine
10
108.89999999999999
20
-1.8369701987210294e-17
30
0
11
108.89999999999999
21
-1.1000000000000001
31
0
0
LINE
5
232
100
AcDbEntity
8
0
100
AcDbLine
10
90
20
-1.8369701987210294e-17
30
0
11
90
21
-1.1000000000000001
31
0
0
LINE
5
233
100
AcDbEntity
8
0
100
AcDbLine
10
110
20
-1.8369701987210294e-17
30
0
11
110
21
-1.1000000000000001
31
0
0
LINE
5
234
100
AcDbEntity
8
0
100
AcDbLine
10
103.89999999999999
20
-1.8369701987210294e-17
30
0
11
103.89999999999999
21
-1.1000000000000001
31
0
0
LINE
5
235
100
AcDbEntity
8
0
100
AcDbLine
10
86.700000000000003
20
-1.8369701987210294e-17
30
0
11
86.700000000000003
21
-1.1000000000000001
31
0
0
LINE
5
236
100
AcDbEntity
8
0
100
AcDbLine
10
101.7
20
-1.8369701987210294e-17
30
0
11
101.7
21
-1.1000000000000001
31
0
0
LINE
5
237
100
AcDbEntity
8
0
100
AcDbLine
10
110.59999999999999
20
-1.8369701987210294e-17
30
0
11
110.59999999999999
21
-1.1000000000000001
31
0
0
LINE
5
238
100
AcDbEntity
8
0
100
AcDbLine
10
82.799999999999997
20
-1.8369701987210294e-17
30
0
11
82.799999999999997
21
-1.1000000000000001
31
0
0
LINE
5
239
100
AcDbEntity
8
0
100
AcDbLine
10
115.59999999999999
20
-1.8369701987210294e-17
30
0
11
115.59999999999999
21
-1.1000000000000001
31
0
0
LINE
5
240
100
AcDbEntity
8
0
100
AcDbLine
10
111.7
20
-1.8369701987210294e-17
30
0
11
111.7
21
-1.1000000000000001
31
0
0
LINE
5
241
100
AcDbEntity
8
0
100
AcDbLine
10
80.599999999999994
20
-1.1000000000000001
30
0
11
85
21
-1.1000000000000001
31
0
0
LINE
5
242
100
AcDbEntity
8
0
100
AcDbLine
10
85.599999999999994
20
-1.8369701987210294e-17
30
0
11
85.599999999999994
21
-1.1000000000000001
31
0
0
LINE
5
243
100
AcDbEntity
8
0
100
AcDbLine
10
117.8
20
-1.8369701987210294e-17
30
0
11
117.8
21
-1.1000000000000001
31
0
0
LINE
5
244
100
AcDbEntity
8
0
100
AcDbLine
10
118.89999999999999
20
-1.8369701987210294e-17
30
0
11
118.89999999999999
21
-1.1000000000000001
31
0
0
LINE
5
245
100
AcDbEntity
8
0
100
AcDbLine
10
85.599999999999994
20
-1.1000000000000001
30
0
11
90
21
-1.1000000000000001
31
0
0
LINE
5
246
100
AcDbEntity
8
0
100
AcDbLine
10
120
20
-1.8369701987210294e-17
30
0
11
120
21
-1.1000000000000001
31
0
0
LINE
5
247
100
AcDbEntity
8
0
100
AcDbLine
10
115.59999999999999
20
-1.1000000000000001
30
0
11
120
21
-1.1000000000000001
31
0
0
LINE
5
248
100
AcDbEntity
8
0
100
AcDbLine
10
85
20
-1.8369701987210294e-17
30
0
11
85
21
-1.1000000000000001
31
0
0
LINE
5
249
100
AcDbEntity
8
0
100
AcDbLine
10
110.59999999999999
20
-1.1000000000000001
30
0
11
115
21
-1.1000000000000001
31
0
0
LINE
5
250
100
AcDbEntity
8
0
100
AcDbLine
10
83.899999999999991
20
-1.8369701987210294e-17
30
0
11
83.899999999999991
21
-1.1000000000000001
31
0
0
LINE
5
251
100
AcDbEntity
8
0
100
AcDbLine
10
115
20
-1.8369701987210294e-17
30
0
11
115
21
-1.1000000000000001
31
0
0
LINE
5
252
100
AcDbEntity
8
0
100
AcDbLine
10
116.7
20
-1.8369701987210294e-17
30
0
11
116.7
21
-1.1000000000000001
31
0
0
LINE
5
253
100
AcDbEntity
8
0
100
AcDbLine
10
112.8
20
-1.8369701987210294e-17
30
0
11
112.8
21
-1.1000000000000001
31
0
0
LINE
5
254
100
AcDbEntity
8
0
100
AcDbLine
10
81.700000000000003
20
-1.8369701987210294e-17
30
0
11
81.700000000000003
21
-1.1000000000000001
31
0
0
LINE
5
255
100
AcDbEntity
8
0
100
AcDbLine
10
113.89999999999999
20
-1.8369701987210294e-17
30
0
11
113.89999999999999
21
-1.1000000000000001
31
0
0
LINE
5
256
100
AcDbEntity
8
0
100
AcDbLine
10
80.599999999999994
20
-1.8369701987210294e-17
30
0
11
80.599999999999994
21
-1.1000000000000001
31
0
0
LINE
5
257
100
AcDbEntity
8
0
100
AcDbLine
10
88.899999999999991
20
-1.8369701987210294e-17
30
0
11
88.899999999999991
21
-1.1000000000000001
31
0
0
LINE
5
258
100
AcDbEntity
8
0
100
AcDbLine
10
133.89999999999998
20
-1.8369701987210294e-17
30
0
11
133.89999999999998
21
-1.1000000000000001
31
0
0
LINE
5
259
100
AcDbEntity
8
0
100
AcDbLine
10
140.59999999999999
20
-1.8369701987210294e-17
30
0
11
140.59999999999999
21
-1.1000000000000001
31
0
0
LINE
5
260
100
AcDbEntity
8
0
100
AcDbLine
10
140
20
-1.8369701987210294e-17
30
0
11
140
21
-1.1000000000000001
31
0
0
LINE
5
261
100
AcDbEntity
8
0
100
AcDbLine
10
145
20
-1.8369701987210294e-17
30
0
11
145
21
-1.1000000000000001
31
0
0
LINE
5
262
100
AcDbEntity
8
0
100
AcDbLine
10
135
20
-1.8369701987210294e-17
30
0
11
135
21
-1.1000000000000001
31
0
0
LINE
5
263
100
AcDbEntity
8
0
100
AcDbLine
10
147.80000000000001
20
-1.8369701987210294e-17
30
0
11
147.80000000000001
21
-1.1000000000000001
31
0
0
LINE
5
264
100
AcDbEntity
8
0
100
AcDbLine
10
137.79999999999998
20
-1.8369701987210294e-17
30
0
11
137.79999999999998
21
-1.1000000000000001
31
0
0
LINE
5
265
100
AcDbEntity
8
0
100
AcDbLine
10
130.59999999999999
20
-1.1000000000000001
30
0
11
135
21
-1.1000000000000001
31
0
0
LINE
5
266
100
AcDbEntity
8
0
100
AcDbLine
10
131.69999999999999
20
-1.8369701987210294e-17
30
0
11
131.69999999999999
21
-1.1000000000000001
31
0
0
LINE
5
267
100
AcDbEntity
8
0
100
AcDbLine
10
136.69999999999999
20
-1.8369701987210294e-17
30
0
11
136.69999999999999
21
-1.1000000000000001
31
0
0
LINE
5
268
100
AcDbEntity
8
0
100
AcDbLine
10
135.59999999999999
20
-1.1000000000000001
30
0
11
140
21
-1.1000000000000001
31
0
0
LINE
5
269
100
AcDbEntity
8
0
100
AcDbLine
10
132.79999999999998
20
-1.8369701987210294e-17
30
0
11
132.79999999999998
21
-1.1000000000000001
31
0
0
LINE
5
270
100
AcDbEntity
8
0
100
AcDbLine
10
140.59999999999999
20
-1.1000000000000001
30
0
11
145
21
-1.1000000000000001
31
0
0
LINE
5
271
100
AcDbEntity
8
0
100
AcDbLine
10
135.59999999999999
20
-1.8369701987210294e-17
30
0
11
135.59999999999999
21
-1.1000000000000001
31
0
0
LINE
5
272
100
AcDbEntity
8
0
100
AcDbLine
10
138.89999999999998
20
-1.8369701987210294e-17
30
0
11
138.89999999999998
21
-1.1000000000000001
31
0
0
LINE
5
273
100
AcDbEntity
8
0
100
AcDbLine
10
146.70000000000002
20
-1.8369701987210294e-17
30
0
11
146.70000000000002
21
-1.1000000000000001
31
0
0
LINE
5
274
100
AcDbEntity
8
0
100
AcDbLine
10
142.79999999999998
20
-1.8369701987210294e-17
30
0
11
142.79999999999998
21
-1.1000000000000001
31
0
0
LINE
5
275
100
AcDbEntity
8
0
100
AcDbLine
10
145.59999999999999
20
-1.8369701987210294e-17
30
0
11
145.59999999999999
21
-1.1000000000000001
31
0
0
LINE
5
276
100
AcDbEntity
8
0
100
AcDbLine
10
145.59999999999999
20
-1.1000000000000001
30
0
11
150.00000000000003
21
-1.1000000000000001
31
0
0
LINE
5
277
100
AcDbEntity
8
0
100
AcDbLine
10
130.59999999999999
20
-1.8369701987210294e-17
30
0
11
130.59999999999999
21
-1.1000000000000001
31
0
0
LINE
5
278
100
AcDbEntity
8
0
100
AcDbLine
10
127.8
20
-1.8369701987210294e-17
30
0
11
127.8
21
-1.1000000000000001
31
0
0
LINE
5
279
100
AcDbEntity
8
0
100
AcDbLine
10
148.90000000000001
20
-1.8369701987210294e-17
30
0
11
148.90000000000001
21
-1.1000000000000001
31
0
0
LINE
5
280
100
AcDbEntity
8
0
100
AcDbLine
10
130
20
-1.8369701987210294e-17
30
0
11
130
21
-1.1000000000000001
31
0
0
LINE
5
281
100
AcDbEntity
8
0
100
AcDbLine
10
150.00000000000003
20
-1.8369701987210294e-17
30
0
11
150.00000000000003
21
-1.1000000000000001
31
0
0
LINE
5
282
100
AcDbEntity
8
0
100
AcDbLine
10
143.89999999999998
20
-1.8369701987210294e-17
30
0
11
143.89999999999998
21
-1.1000000000000001
31
0
0
LINE
5
283
100
AcDbEntity
8
0
100
AcDbLine
10
126.7
20
-1.8369701987210294e-17
30
0
11
126.7
21
-1.1000000000000001
31
0
0
LINE
5
284
100
AcDbEntity
8
0
100
AcDbLine
10
141.69999999999999
20
-1.8369701987210294e-17
30
0
11
141.69999999999999
21
-1.1000000000000001
31
0
0
LINE
5
285
100
AcDbEntity
8
0
100
AcDbLine
10
150.59999999999999
20
-1.8369701987210294e-17
30
0
11
150.59999999999999
21
-1.1000000000000001
31
0
0
LINE
5
286
100
AcDbEntity
8
0
100
AcDbLine
10
122.8
20
-1.8369701987210294e-17
30
0
11
122.8
21
-1.1000000000000001
31
0
0
LINE
5
287
100
AcDbEntity
8
0
100
AcDbLine
10
155.59999999999999
20
-1.8369701987210294e-17
30
0
11
155.59999999999999
21
-1.1000000000000001
31
0
0
LINE
5
288
100
AcDbEntity
8
0
100
AcDbLine
10
151.70000000000002
20
-1.8369701987210294e-17
30
0
11
151.70000000000002
21
-1.1000000000000001
31
0
0
LINE
5
289
100
AcDbEntity
8
0
100
AcDbLine
10
120.59999999999999
20
-1.1000000000000001
30
0
11
125
21
-1.1000000000000001
31
0
0
LINE
5
290
100
AcDbEntity
8
0
100
AcDbLine
10
125.59999999999999
20
-1.8369701987210294e-17
30
0
11
125.59999999999999
21
-1.1000000000000001
31
0
0
LINE
5
291
100
AcDbEntity
8
0
100
AcDbLine
10
157.80000000000001
20
-1.8369701987210294e-17
30
0
11
157.80000000000001
21
-1.1000000000000001
31
0
0
LINE
5
292
100
AcDbEntity
8
0
100
AcDbLine
10
158.90000000000001
20
-1.8369701987210294e-17
30
0
11
158.90000000000001
21
-1.1000000000000001
31
0
0
LINE
5
293
100
AcDbEntity
8
0
100
AcDbLine
10
125.59999999999999
20
-1.1000000000000001
30
0
11
130
21
-1.1000000000000001
31
0
0
LINE
5
294
100
AcDbEntity
8
0
100
AcDbLine
10
160
20
-1.8369701987210294e-17
30
0
11
160
21
-1.1000000000000001
31
0
0
LINE
5
295
100
AcDbEntity
8
0
100
AcDbLine
10
155.59999999999999
20
-1.1000000000000001
30
0
11
160
21
-1.1000000000000001
31
0
0
LINE
5
296
100
AcDbEntity
8
0
100
AcDbLine
10
125
20
-1.8369701987210294e-17
30
0
11
125
21
-1.1000000000000001
31
0
0
LINE
5
297
100
AcDbEntity
8
0
100
AcDbLine
10
150.59999999999999
20
-1.1000000000000001
30
0
11
155.00000000000003
21
-1.1000000000000001
31
0
0
LINE
5
298
100
AcDbEntity
8
0
100
AcDbLine
10
123.89999999999999
20
-1.8369701987210294e-17
30
0
11
123.89999999999999
21
-1.1000000000000001
31
0
0
LINE
5
299
100
AcDbEntity
8
0
100
AcDbLine
10
155.00000000000003
20
-1.8369701987210294e-17
30
0
11
155.00000000000003
21
-1.1000000000000001
31
0
0
LINE
5
300
100
AcDbEntity
8
0
100
AcDbLine
10
156.70000000000002
20
-1.8369701987210294e-17
30
0
11
156.70000000000002
21
-1.1000000000000001
31
0
0
LINE
5
301
100
AcDbEntity
8
0
100
AcDbLine
10
152.80000000000001
20
-1.8369701987210294e-17
30
0
11
152.80000000000001
21
-1.1000000000000001
31
0
0
LINE
5
302
100
AcDbEntity
8
0
100
AcDbLine
10
121.7
20
-1.8369701987210294e-17
30
0
11
121.7
21
-1.1000000000000001
31
0
0
LINE
5
303
100
AcDbEntity
8
0
100
AcDbLine
10
153.90000000000001
20
-1.8369701987210294e-17
30
0
11
153.90000000000001
21
-1.1000000000000001
31
0
0
LINE
5
304
100
AcDbEntity
8
0
100
AcDbLine
10
120.59999999999999
20
-1.8369701987210294e-17
30
0
11
120.59999999999999
21
-1.1000000000000001
31
0
0
LINE
5
305
100
AcDbEntity
8
0
100
AcDbLine
10
128.89999999999998
20
-1.8369701987210294e-17
30
0
11
128.89999999999998
21
-1.1000000000000001
31
0
0
LINE
5
306
100
AcDbEntity
8
0
100
AcDbLine
10
173.90000000000001
20
-1.8369701987210294e-17
30
0
11
173.90000000000001
21
-1.1000000000000001
31
0
0
LINE
5
307
100
AcDbEntity
8
0
100
AcDbLine
10
180.60000000000002
20
-1.8369701987210294e-17
30
0
11
180.60000000000002
21
-1.1000000000000001
31
0
0
LINE
5
308
100
AcDbEntity
8
0
100
AcDbLine
10
180
20
-1.8369701987210294e-17
30
0
11
180
21
-1.1000000000000001
31
0
0
LINE
5
309
100
AcDbEntity
8
0
100
AcDbLine
10
185
20
-1.8369701987210294e-17
30
0
11
185
21
-1.1000000000000001
31
0
0
LINE
5
310
100
AcDbEntity
8
0
100
AcDbLine
10
175
20
-1.8369701987210294e-17
30
0
11
175
21
-1.1000000000000001
31
0
0
LINE
5
311
100
AcDbEntity
8
0
100
AcDbLine
10
187.80000000000001
20
-1.8369701987210294e-17
30
0
11
187.80000000000001
21
-1.1000000000000001
31
0
0
LINE
5
312
100
AcDbEntity
8
0
100
AcDbLine
10
177.80000000000001
20
-1.8369701987210294e-17
30
0
11
177.80000000000001
21
-1.1000000000000001
31
0
0
LINE
5
313
100
AcDbEntity
8
0
100
AcDbLine
10
170.60000000000002
20
-1.1000000000000001
30
0
11
175
21
-1.1000000000000001
31
0
0
LINE
5
314
100
AcDbEntity
8
0
100
AcDbLine
10
171.70000000000002
20
-1.8369701987210294e-17
30
0
11
171.70000000000002
21
-1.1000000000000001
31
0
0
LINE
5
315
100
AcDbEntity
8
0
100
AcDbLine
10
176.70000000000002
20
-1.8369701987210294e-17
30
0
11
176.70000000000002
21
-1.1000000000000001
31
0
0
LINE
5
316
100
AcDbEntity
8
0
100
AcDbLine
10
175.60000000000002
20
-1.1000000000000001
30
0
11
180
21
-1.1000000000000001
31
0
0
LINE
5
317
100
AcDbEntity
8
0
100
AcDbLine
10
172.80000000000001
20
-1.8369701987210294e-17
30
0
11
172.80000000000001
21
-1.1000000000000001
31
0
0
LINE
5
318
100
AcDbEntity
8
0
100
AcDbLine
10
180.60000000000002
20
-1.1000000000000001
30
0
11
185
21
-1.1000000000000001
31
0
0
LINE
5
319
100
AcDbEntity
8
0
100
AcDbLine
10
175.60000000000002
20
-1.8369701987210294e-17
30
0
11
175.60000000000002
21
-1.1000000000000001
31
0
0
LINE
5
320
100
AcDbEntity
8
0
100
AcDbLine
10
178.90000000000001
20
-1.8369701987210294e-17
30
0
11
178.90000000000001
21
-1.1000000000000001
31
0
0
LINE
5
321
100
AcDbEntity
8
0
100
AcDbLine
10
186.70000000000002
20
-1.8369701987210294e-17
30
0
11
186.70000000000002
21
-1.1000000000000001
31
0
0
LINE
5
322
100
AcDbEntity
8
0
100
AcDbLine
10
182.80000000000001
20
-1.8369701987210294e-17
30
0
11
182.80000000000001
21
-1.1000000000000001
31
0
0
LINE
5
323
100
AcDbEntity
8
0
100
AcDbLine
10
185.60000000000002
20
-1.8369701987210294e-17
30
0
11
185.60000000000002
21
-1.1000000000000001
31
0
0
LINE
5
324
100
AcDbEntity
8
0
100
AcDbLine
10
185.60000000000002
20
-1.1000000000000001
30
0
11
190
21
-1.1000000000000001
31
0
0
LINE
5
325
100
AcDbEntity
8
0
100
AcDbLine
10
170.60000000000002
20
-1.8369701987210294e-17
30
0
11
170.60000000000002
21
-1.1000000000000001
31
0
0
LINE
5
326
100
AcDbEntity
8
0
100
AcDbLine
10
167.80000000000001
20
-1.8369701987210294e-17
30
0
11
167.80000000000001
21
-1.1000000000000001
31
0
0
LINE
5
327
100
AcDbEntity
8
0
100
AcDbLine
10
188.90000000000001
20
-1.8369701987210294e-17
30
0
11
188.90000000000001
21
-1.1000000000000001
31
0
0
LINE
5
328
100
AcDbEntity
8
0
100
AcDbLine
10
170
20
-1.8369701987210294e-17
30
0
11
170
21
-1.1000000000000001
31
0
0
LINE
5
329
100
AcDbEntity
8
0
100
AcDbLine
10
190
20
-1.8369701987210294e-17
30
0
11
190
21
-1.1000000000000001
31
0
0
LINE
5
330
100
AcDbEntity
8
0
100
AcDbLine
10
183.90000000000001
20
-1.8369701987210294e-17
30
0
11
183.90000000000001
21
-1.1000000000000001
31
0
0
LINE
5
331
100
AcDbEntity
8
0
100
AcDbLine
10
166.70000000000002
20
-1.8369701987210294e-17
30
0
11
166.70000000000002
21
-1.1000000000000001
31
0
0
LINE
5
332
100
AcDbEntity
8
0
100
AcDbLine
10
181.70000000000002
20
-1.8369701987210294e-17
30
0
11
181.70000000000002
21
-1.1000000000000001
31
0
0
LINE
5
333
100
AcDbEntity
8
0
100
AcDbLine
10
190.60000000000002
20
-1.8369701987210294e-17
30
0
11
190.60000000000002
21
-1.1000000000000001
31
0
0
LINE
5
334
100
AcDbEntity
8
0
100
AcDbLine
10
162.80000000000001
20
-1.8369701987210294e-17
30
0
11
162.80000000000001
21
-1.1000000000000001
31
0
0
LINE
5
335
100
AcDbEntity
8
0
100
AcDbLine
10
195.60000000000002
20
-1.8369701987210294e-17
30
0
11
195.60000000000002
21
-1.1000000000000001
31
0
0
LINE
5
336
100
AcDbEntity
8
0
100
AcDbLine
10
191.70000000000002
20
-1.8369701987210294e-17
30
0
11
191.70000000000002
21
-1.1000000000000001
31
0
0
LINE
5
337
100
AcDbEntity
8
0
100
AcDbLine
10
160.60000000000002
20
-1.1000000000000001
30
0
11
165
21
-1.1000000000000001
31
0
0
LINE
5
338
100
AcDbEntity
8
0
100
AcDbLine
10
165.60000000000002
20
-1.8369701987210294e-17
30
0
11
165.60000000000002
21
-1.1000000000000001
31
0
0
LINE
5
339
100
AcDbEntity
8
0
100
AcDbLine
10
197.80000000000001
20
-1.8369701987210294e-17
30
0
11
197.80000000000001
21
-1.1000000000000001
31
0
0
LINE
5
340
100
AcDbEntity
8
0
100
AcDbLine
10
198.90000000000001
20
-1.8369701987210294e-17
30
0
11
198.90000000000001
21
-1.1000000000000001
31
0
0
LINE
5
341
100
AcDbEntity
8
0
100
AcDbLine
10
165.60000000000002
20
-1.1000000000000001
30
0
11
170
21
-1.1000000000000001
31
0
0
LINE
5
342
100
AcDbEntity
8
0
100
AcDbLine
10
200
20
-1.8369701987210294e-17
30
0
11
200
21
-1.1000000000000001
31
0
0
LINE
5
343
100
AcDbEntity
8
0
100
AcDbLine
10
195.60000000000002
20
-1.1000000000000001
30
0
11
200
21
-1.1000000000000001
31
0
0
LINE
5
344
100
AcDbEntity
8
0
100
AcDbLine
10
165
20
-1.8369701987210294e-17
30
0
11
165
21
-1.1000000000000001
31
0
0
LINE
5
345
100
AcDbEntity
8
0
100
AcDbLine
10
190.60000000000002
20
-1.1000000000000001
30
0
11
195
21
-1.1000000000000001
31
0
0
LINE
5
346
100
AcDbEntity
8
0
100
AcDbLine
10
163.90000000000001
20
-1.8369701987210294e-17
30
0
11
163.90000000000001
21
-1.1000000000000001
31
0
0
LINE
5
347
100
AcDbEntity
8
0
100
AcDbLine
10
195
20
-1.8369701987210294e-17
30
0
11
195
21
-1.1000000000000001
31
0
0
LINE
5
348
100
AcDbEntity
8
0
100
AcDbLine
10
196.70000000000002
20
-1.8369701987210294e-17
30
0
11
196.70000000000002
21
-1.1000000000000001
31
0
0
LINE
5
349
100
AcDbEntity
8
0
100
AcDbLine
10
192.80000000000001
20
-1.8369701987210294e-17
30
0
11
192.80000000000001
21
-1.1000000000000001
31
0
0
LINE
5
350
100
AcDbEntity
8
0
100
AcDbLine
10
161.70000000000002
20
-1.8369701987210294e-17
30
0
11
161.70000000000002
21
-1.1000000000000001
31
0
0
LINE
5
351
100
AcDbEntity
8
0
100
AcDbLine
10
193.90000000000001
20
-1.8369701987210294e-17
30
0
11
193.90000000000001
21
-1.1000000000000001
31
0
0
LINE
5
352
100
AcDbEntity
8
0
100
AcDbLine
10
160.60000000000002
20
-1.8369701987210294e-17
30
0
11
160.60000000000002
21
-1.1000000000000001
31
0
0
LINE
5
353
100
AcDbEntity
8
0
100
AcDbLine
10
168.90000000000001
20
-1.8369701987210294e-17
30
0
11
168.90000000000001
21
-1.1000000000000001
31
0
0
LINE
5
354
100
AcDbEntity
8
0
100
AcDbLine
10
213.90000000000001
20
-1.8369701987210294e-17
30
0
11
213.90000000000001
21
-1.1000000000000001
31
0
0
LINE
5
355
100
AcDbEntity
8
0
100
AcDbLine
10
220.60000000000002
20
-1.8369701987210294e-17
30
0
11
220.60000000000002
21
-1.1000000000000001
31
0
0
LINE
5
356
100
AcDbEntity
8
0
100
AcDbLine
10
220
20
-1.8369701987210294e-17
30
0
11
220
21
-1.1000000000000001
31
0
0
LINE
5
357
100
AcDbEntity
8
0
100
AcDbLine
10
225
20
-1.8369701987210294e-17
30
0
11
225
21
-1.1000000000000001
31
0
0
LINE
5
358
100
AcDbEntity
8
0
100
AcDbLine
10
215
20
-1.8369701987210294e-17
30
0
11
215
21
-1.1000000000000001
31
0
0
LINE
5
359
100
AcDbEntity
8
0
100
AcDbLine
10
227.80000000000001
20
-1.8369701987210294e-17
30
0
11
227.80000000000001
21
-1.1000000000000001
31
0
0
LINE
5
360
100
AcDbEntity
8
0
100
AcDbLine
10
217.80000000000001
20
-1.8369701987210294e-17
30
0
11
217.80000000000001
21
-1.1000000000000001
31
0
0
LINE
5
361
100
AcDbEntity
8
0
100
AcDbLine
10
210.60000000000002
20
-1.1000000000000001
30
0
11
215
21
-1.1000000000000001
31
0
0
LINE
5
362
100
AcDbEntity
8
0
100
AcDbLine
10
211.70000000000002
20
-1.8369701987210294e-17
30
0
11
211.70000000000002
21
-1.1000000000000001
31
0
0
LINE
5
363
100
AcDbEntity
8
0
100
AcDbLine
10
216.70000000000002
20
-1.8369701987210294e-17
30
0
11
216.70000000000002
21
-1.1000000000000001
31
0
0
LINE
5
364
100
AcDbEntity
8
0
100
AcDbLine
10
215.60000000000002
20
-1.1000000000000001
30
0
11
220
21
-1.1000000000000001
31
0
0
LINE
5
365
100
AcDbEntity
8
0
100
AcDbLine
10
212.80000000000001
20
-1.8369701987210294e-17
30
0
11
212.80000000000001
21
-1.1000000000000001
31
0
0
LINE
5
366
100
AcDbEntity
8
0
100
AcDbLine
10
220.60000000000002
20
-1.1000000000000001
30
0
11
225
21
-1.1000000000000001
31
0
0
LINE
5
367
100
AcDbEntity
8
0
100
AcDbLine
10
215.60000000000002
20
-1.8369701987210294e-17
30
0
11
215.60000000000002
21
-1.1000000000000001
31
0
0
LINE
5
368
100
AcDbEntity
8
0
100
AcDbLine
10
218.90000000000001
20
-1.8369701987210294e-17
30
0
11
218.90000000000001
21
-1.1000000000000001
31
0
0
LINE
5
369
100
AcDbEntity
8
0
100
AcDbLine
10
226.70000000000002
20
-1.8369701987210294e-17
30
0
11
226.70000000000002
21
-1.1000000000000001
31
0
0
LINE
5
370
100
AcDbEntity
8
0
100
AcDbLine
10
222.80000000000001
20
-1.8369701987210294e-17
30
0
11
222.80000000000001
21
-1.1000000000000001
31
0
0
LINE
5
371
100
AcDbEntity
8
0
100
AcDbLine
10
225.60000000000002
20
-1.8369701987210294e-17
30
0
11
225.60000000000002
21
-1.1000000000000001
31
0
0
LINE
5
372
100
AcDbEntity
8
0
100
AcDbLine
10
225.60000000000002
20
-1.1000000000000001
30
0
11
230
21
-1.1000000000000001
31
0
0
LINE
5
373
100
AcDbEntity
8
0
100
AcDbLine
10
210.60000000000002
20
-1.8369701987210294e-17
30
0
11
210.60000000000002
21
-1.1000000000000001
31
0
0
LINE
5
374
100
AcDbEntity
8
0
100
AcDbLine
10
207.80000000000001
20
-1.8369701987210294e-17
30
0
11
207.80000000000001
21
-1.1000000000000001
31
0
0
LINE
5
375
100
AcDbEntity
8
0
100
AcDbLine
10
228.90000000000001
20
-1.8369701987210294e-17
30
0
11
228.90000000000001
21
-1.1000000000000001
31
0
0
LINE
5
376
100
AcDbEntity
8
0
100
AcDbLine
10
210
20
-1.8369701987210294e-17
30
0
11
210
21
-1.1000000000000001
31
0
0
LINE
5
377
100
AcDbEntity
8
0
100
AcDbLine
10
230
20
-1.8369701987210294e-17
30
0
11
230
21
-1.1000000000000001
31
0
0
LINE
5
378
100
AcDbEntity
8
0
100
AcDbLine
10
223.90000000000001
20
-1.8369701987210294e-17
30
0
11
223.90000000000001
21
-1.1000000000000001
31
0
0
LINE
5
379
100
AcDbEntity
8
0
100
AcDbLine
10
206.70000000000002
20
-1.8369701987210294e-17
30
0
11
206.70000000000002
21
-1.1000000000000001
31
0
0
LINE
5
380
100
AcDbEntity
8
0
100
AcDbLine
10
221.70000000000002
20
-1.8369701987210294e-17
30
0
11
221.70000000000002
21
-1.1000000000000001
31
0
0
LINE
5
381
100
AcDbEntity
8
0
100
AcDbLine
10
230.60000000000002
20
-1.8369701987210294e-17
30
0
11
230.60000000000002
21
-1.1000000000000001
31
0
0
LINE
5
382
100
AcDbEntity
8
0
100
AcDbLine
10
202.80000000000001
20
-1.8369701987210294e-17
30
0
11
202.80000000000001
21
-1.1000000000000001
31
0
0
LINE
5
383
100
AcDbEntity
8
0
100
AcDbLine
10
235.60000000000002
20
-1.8369701987210294e-17
30
0
11
235.60000000000002
21
-1.1000000000000001
31
0
0
LINE
5
384
100
AcDbEntity
8
0
100
AcDbLine
10
231.70000000000002
20
-1.8369701987210294e-17
30
0
11
231.70000000000002
21
-1.1000000000000001
31
0
0
LINE
5
385
100
AcDbEntity
8
0
100
AcDbLine
10
200.60000000000002
20
-1.1000000000000001
30
0
11
205
21
-1.1000000000000001
31
0
0
LINE
5
386
100
AcDbEntity
8
0
100
AcDbLine
10
205.60000000000002
20
-1.8369701987210294e-17
30
0
11
205.60000000000002
21
-1.1000000000000001
31
0
0
LINE
5
387
100
AcDbEntity
8
0
100
AcDbLine
10
237.80000000000001
20
-1.8369701987210294e-17
30
0
11
237.80000000000001
21
-1.1000000000000001
31
0
0
LINE
5
388
100
AcDbEntity
8
0
100
AcDbLine
10
238.90000000000001
20
-1.8369701987210294e-17
30
0
11
238.90000000000001
21
-1.1000000000000001
31
0
0
LINE
5
389
100
AcDbEntity
8
0
100
AcDbLine
10
205.60000000000002
20
-1.1000000000000001
30
0
11
210
21
-1.1000000000000001
31
0
0
LINE
5
390
100
AcDbEntity
8
0
100
AcDbLine
10
240
20
-1.8369701987210294e-17
30
0
11
240
21
-1.1000000000000001
31
0
0
LINE
5
391
100
AcDbEntity
8
0
100
AcDbLine
10
235.60000000000002
20
-1.1000000000000001
30
0
11
240
21
-1.1000000000000001
31
0
0
LINE
5
392
100
AcDbEntity
8
0
100
AcDbLine
10
205
20
-1.8369701987210294e-17
30
0
11
205
21
-1.1000000000000001
31
0
0
LINE
5
393
100
AcDbEntity
8
0
100
AcDbLine
10
230.60000000000002
20
-1.1000000000000001
30
0
11
235
21
-1.1000000000000001
31
0
0
LINE
5
394
100
AcDbEntity
8
0
100
AcDbLine
10
203.90000000000001
20
-1.8369701987210294e-17
30
0
11
203.90000000000001
21
-1.1000000000000001
31
0
0
LINE
5
395
100
AcDbEntity
8
0
100
AcDbLine
10
235
20
-1.8369701987210294e-17
30
0
11
235
21
-1.1000000000000001
31
0
0
LINE
5
396
100
AcDbEntity
8
0
100
AcDbLine
10
236.70000000000002
20
-1.8369701987210294e-17
30
0
11
236.70000000000002
21
-1.1000000000000001
31
0
0
LINE
5
397
100
AcDbEntity
8
0
100
AcDbLine
10
232.80000000000001
20
-1.8369701987210294e-17
30
0
11
232.80000000000001
21
-1.1000000000000001
31
0
0
LINE
5
398
100
AcDbEntity
8
0
100
AcDbLine
10
201.70000000000002
20
-1.8369701987210294e-17
30
0
11
201.70000000000002
21
-1.1000000000000001
31
0
0
LINE
5
399
100
AcDbEntity
8
0
100
AcDbLine
10
233.90000000000001
20
-1.8369701987210294e-17
30
0
11
233.90000000000001
21
-1.1000000000000001
31
0
0
LINE
5
400
100
AcDbEntity
8
0
100
AcDbLine
10
200.60000000000002
20
-1.8369701987210294e-17
30
0
11
200.60000000000002
21
-1.1000000000000001
31
0
0
LINE
5
401
100
AcDbEntity
8
0
100
AcDbLine
10
208.90000000000001
20
-1.8369701987210294e-17
30
0
11
208.90000000000001
21
-1.1000000000000001
31
0
0
LINE
5
402
100
AcDbEntity
8
0
100
AcDbLine
10
253.90000000000001
20
-1.8369701987210294e-17
30
0
11
253.90000000000001
21
-1.1000000000000001
31
0
0
LINE
5
403
100
AcDbEntity
8
0
100
AcDbLine
10
260.60000000000002
20
-1.8369701987210294e-17
30
0
11
260.60000000000002
21
-1.1000000000000001
31
0
0
LINE
5
404
100
AcDbEntity
8
0
100
AcDbLine
10
260
20
-1.8369701987210294e-17
30
0
11
260
21
-1.1000000000000001
31
0
0
LINE
5
405
100
AcDbEntity
8
0
100
AcDbLine
10
265
20
-1.8369701987210294e-17
30
0
11
265
21
-1.1000000000000001
31
0
0
LINE
5
406
100
AcDbEntity
8
0
100
AcDbLine
10
255
20
-1.8369701987210294e-17
30
0
11
255
21
-1.1000000000000001
31
0
0
LINE
5
407
100
AcDbEntity
8
0
100
AcDbLine
10
267.80000000000001
20
-1.8369701987210294e-17
30
0
11
267.80000000000001
21
-1.1000000000000001
31
0
0
LINE
5
408
100
AcDbEntity
8
0
100
AcDbLine
10
257.80000000000001
20
-1.8369701987210294e-17
30
0
11
257.80000000000001
21
-1.1000000000000001
31
0
0
LINE
5
409
100
AcDbEntity
8
0
100
AcDbLine
10
250.60000000000002
20
-1.1000000000000001
30
0
11
255
21
-1.1000000000000001
31
0
0
LINE
5
410
100
AcDbEntity
8
0
100
AcDbLine
10
251.70000000000002
20
-1.8369701987210294e-17
30
0
11
251.70000000000002
21
-1.1000000000000001
31
0
0
LINE
5
411
100
AcDbEntity
8
0
100
AcDbLine
10
256.70000000000005
20
-1.8369701987210294e-17
30
0
11
256.70000000000005
21
-1.1000000000000001
31
0
0
LINE
5
412
100
AcDbEntity
8
0
100
AcDbLine
10
255.60000000000002
20
-1.1000000000000001
30
0
11
260
21
-1.1000000000000001
31
0
0
LINE
5
413
100
AcDbEntity
8
0
100
AcDbLine
10
252.80000000000001
20
-1.8369701987210294e-17
30
0
11
252.80000000000001
21
-1.1000000000000001
31
0
0
LINE
5
414
100
AcDbEntity
8
0
100
AcDbLine
10
260.60000000000002
20
-1.1000000000000001
30
0
11
265
21
-1.1000000000000001
31
0
0
LINE
5
415
100
AcDbEntity
8
0
100
AcDbLine
10
255.60000000000002
20
-1.8369701987210294e-17
30
0
11
255.60000000000002
21
-1.1000000000000001
31
0
0
LINE
5
416
100
AcDbEntity
8
0
100
AcDbLine
10
258.89999999999998
20
-1.8369701987210294e-17
30
0
11
258.89999999999998
21
-1.1000000000000001
31
0
0
LINE
5
417
100
AcDbEntity
8
0
100
AcDbLine
10
266.70000000000005
20
-1.8369701987210294e-17
30
0
11
266.70000000000005
21
-1.1000000000000001
31
0
0
LINE
5
418
100
AcDbEntity
8
0
100
AcDbLine
10
262.80000000000001
20
-1.8369701987210294e-17
30
0
11
262.80000000000001
21
-1.1000000000000001
31
0
0
LINE
5
419
100
AcDbEntity
8
0
100
AcDbLine
10
265.60000000000002
20
-1.8369701987210294e-17
30
0
11
265.60000000000002
21
-1.1000000000000001
31
0
0
LINE
5
420
100
AcDbEntity
8
0
100
AcDbLine
10
265.60000000000002
20
-1.1000000000000001
30
0
11
270
21
-1.1000000000000001
31
0
0
LINE
5
421
100
AcDbEntity
8
0
100
AcDbLine
10
250.60000000000002
20
-1.8369701987210294e-17
30
0
11
250.60000000000002
21
-1.1000000000000001
31
0
0
LINE
5
422
100
AcDbEntity
8
0
100
AcDbLine
10
247.80000000000001
20
-1.8369701987210294e-17
30
0
11
247.80000000000001
21
-1.1000000000000001
31
0
0
LINE
5
423
100
AcDbEntity
8
0
100
AcDbLine
10
268.89999999999998
20
-1.8369701987210294e-17
30
0
11
268.89999999999998
21
-1.1000000000000001
31
0
0
LINE
5
424
100
AcDbEntity
8
0
100
AcDbLine
10
250
20
-1.8369701987210294e-17
30
0
11
250
21
-1.1000000000000001
31
0
0
LINE
5
425
100
AcDbEntity
8
0
100
AcDbLine
10
270
20
-1.8369701987210294e-17
30
0
11
270
21
-1.1000000000000001
31
0
0
LINE
5
426
100
AcDbEntity
8
0
100
AcDbLine
10
263.89999999999998
20
-1.8369701987210294e-17
30
0
11
263.89999999999998
21
-1.1000000000000001
31
0
0
LINE
5
427
100
AcDbEntity
8
0
100
AcDbLine
10
246.70000000000002
20
-1.8369701987210294e-17
30
0
11
246.70000000000002
21
-1.1000000000000001
31
0
0
LINE
5
428
100
AcDbEntity
8
0
100
AcDbLine
10
261.70000000000005
20
-1.8369701987210294e-17
30
0
11
261.70000000000005
21
-1.1000000000000001
31
0
0
LINE
5
429
100
AcDbEntity
8
0
100
AcDbLine
10
270.60000000000002
20
-1.8369701987210294e-17
30
0
11
270.60000000000002
21
-1.1000000000000001
31
0
0
LINE
5
430
100
AcDbEntity
8
0
100
AcDbLine
10
242.80000000000001
20
-1.8369701987210294e-17
30
0
11
242.80000000000001
21
-1.1000000000000001
31
0
0
LINE
5
431
100
AcDbEntity
8
0
100
AcDbLine
10
275.60000000000002
20
-1.8369701987210294e-17
30
0
11
275.60000000000002
21
-1.1000000000000001
31
0
0
LINE
5
432
100
AcDbEntity
8
0
100
AcDbLine
10
271.70000000000005
20
-1.8369701987210294e-17
30
0
11
271.70000000000005
21
-1.1000000000000001
31
0
0
LINE
5
433
100
AcDbEntity
8
0
100
AcDbLine
10
240.60000000000002
20
-1.1000000000000001
30
0
11
245
21
-1.1000000000000001
31
0
0
LINE
5
434
100
AcDbEntity
8
0
100
AcDbLine
10
245.60000000000002
20
-1.8369701987210294e-17
30
0
11
245.60000000000002
21
-1.1000000000000001
31
0
0
LINE
5
435
100
AcDbEntity
8
0
100
AcDbLine
10
277.80000000000001
20
-1.8369701987210294e-17
30
0
11
277.80000000000001
21
-1.1000000000000001
31
0
0
LINE
5
436
100
AcDbEntity
8
0
100
AcDbLine
10
278.89999999999998
20
-1.8369701987210294e-17
30
0
11
278.89999999999998
21
-1.1000000000000001
31
0
0
LINE
5
437
100
AcDbEntity
8
0
100
AcDbLine
10
245.60000000000002
20
-1.1000000000000001
30
0
11
250
21
-1.1000000000000001
31
0
0
LINE
5
438
100
AcDbEntity
8
0
100
AcDbLine
10
280
20
-1.8369701987210294e-17
30
0
11
280
21
-1.1000000000000001
31
0
0
LINE
5
439
100
AcDbEntity
8
0
100
AcDbLine
10
275.60000000000002
20
-1.1000000000000001
30
0
11
280
21
-1.1000000000000001
31
0
0
LINE
5
440
100
AcDbEntity
8
0
100
AcDbLine
10
245
20
-1.8369701987210294e-17
30
0
11
245
21
-1.1000000000000001
31
0
0
LINE
5
441
100
AcDbEntity
8
0
100
AcDbLine
10
270.60000000000002
20
-1.1000000000000001
30
0
11
275
21
-1.1000000000000001
31
0
0
LINE
5
442
100
AcDbEntity
8
0
100
AcDbLine
10
243.90000000000001
20
-1.8369701987210294e-17
30
0
11
243.90000000000001
21
-1.1000000000000001
31
0
0
LINE
5
443
100
AcDbEntity
8
0
100
AcDbLine
10
275
20
-1.8369701987210294e-17
30
0
11
275
21
-1.1000000000000001
31
0
0
LINE
5
444
100
AcDbEntity
8
0
100
AcDbLine
10
276.70000000000005
20
-1.8369701987210294e-17
30
0
11
276.70000000000005
21
-1.1000000000000001
31
0
0
LINE
5
445
100
AcDbEntity
8
0
100
AcDbLine
10
272.80000000000001
20
-1.8369701987210294e-17
30
0
11
272.80000000000001
21
-1.1000000000000001
31
0
0
LINE
5
446
100
AcDbEntity
8
0
100
AcDbLine
10
241.70000000000002
20
-1.8369701987210294e-17
30
0
11
241.70000000000002
21
-1.1000000000000001
31
0
0
LINE
5
447
100
AcDbEntity
8
0
100
AcDbLine
10
273.89999999999998
20
-1.8369701987210294e-17
30
0
11
273.89999999999998
21
-1.1000000000000001
31
0
0
LINE
5
448
100
AcDbEntity
8
0
100
AcDbLine
10
240.60000000000002
20
-1.8369701987210294e-17
30
0
11
240.60000000000002
21
-1.1000000000000001
31
0
0
LINE
5
449
100
AcDbEntity
8
0
100
AcDbLine
10
248.90000000000001
20
-1.8369701987210294e-17
30
0
11
248.90000000000001
21
-1.1000000000000001
31
0
0
LINE
5
450
100
AcDbEntity
8
0
100
AcDbLine
10
293.89999999999998
20
-1.8369701987210294e-17
30
0
11
293.89999999999998
21
-1.1000000000000001
31
0
0
LINE
5
451
100
AcDbEntity
8
0
100
AcDbLine
10
300.60000000000002
20
-1.8369701987210294e-17
30
0
11
300.60000000000002
21
-1.1000000000000001
31
0
0
LINE
5
452
100
AcDbEntity
8
0
100
AcDbLine
10
300
20
-1.8369701987210294e-17
30
0
11
300
21
-1.1000000000000001
31
0
0
LINE
5
453
100
AcDbEntity
8
0
100
AcDbLine
10
305
20
-1.8369701987210294e-17
30
0
11
305
21
-1.1000000000000001
31
0
0
LINE
5
454
100
AcDbEntity
8
0
100
AcDbLine
10
295
20
-1.8369701987210294e-17
30
0
11
295
21
-1.1000000000000001
31
0
0
LINE
5
455
100
AcDbEntity
8
0
100
AcDbLine
10
307.80000000000001
20
-1.8369701987210294e-17
30
0
11
307.80000000000001
21
-1.1000000000000001
31
0
0
LINE
5
456
100
AcDbEntity
8
0
100
AcDbLine
10
297.80000000000001
20
-1.8369701987210294e-17
30
0
11
297.80000000000001
21
-1.1000000000000001
31
0
0
LINE
5
457
100
AcDbEntity
8
0
100
AcDbLine
10
290.60000000000002
20
-1.1000000000000001
30
0
11
295
21
-1.1000000000000001
31
0
0
LINE
5
458
100
AcDbEntity
8
0
100
AcDbLine
10
291.70000000000005
20
-1.8369701987210294e-17
30
0
11
291.70000000000005
21
-1.1000000000000001
31
0
0
LINE
5
459
100
AcDbEntity
8
0
100
AcDbLine
10
296.70000000000005
20
-1.8369701987210294e-17
30
0
11
296.70000000000005
21
-1.1000000000000001
31
0
0
LINE
5
460
100
AcDbEntity
8
0
100
AcDbLine
10
295.60000000000002
20
-1.1000000000000001
30
0
11
300
21
-1.1000000000000001
31
0
0
LINE
5
461
100
AcDbEntity
8
0
100
AcDbLine
10
292.80000000000001
20
-1.8369701987210294e-17
30
0
11
292.80000000000001
21
-1.1000000000000001
31
0
0
LINE
5
462
100
AcDbEntity
8
0
100
AcDbLine
10
300.60000000000002
20
-1.1000000000000001
30
0
11
305
21
-1.1000000000000001
31
0
0
LINE
5
463
100
AcDbEntity
8
0
100
AcDbLine
10
295.60000000000002
20
-1.8369701987210294e-17
30
0
11
295.60000000000002
21
-1.1000000000000001
31
0
0
LINE
5
464
100
AcDbEntity
8
0
100
AcDbLine
10
298.89999999999998
20
-1.8369701987210294e-17
30
0
11
298.89999999999998
21
-1.1000000000000001
31
0
0
LINE
5
465
100
AcDbEntity
8
0
100
AcDbLine
10
306.70000000000005
20
-1.8369701987210294e-17
30
0
11
306.70000000000005
21
-1.1000000000000001
31
0
0
LINE
5
466
100
AcDbEntity
8
0
100
AcDbLine
10
302.80000000000001
20
-1.8369701987210294e-17
30
0
11
302.80000000000001
21
-1.1000000000000001
31
0
0
LINE
5
467
100
AcDbEntity
8
0
100
AcDbLine
10
305.60000000000002
20
-1.8369701987210294e-17
30
0
11
305.60000000000002
21
-1.1000000000000001
31
0
0
LINE
5
468
100
AcDbEntity
8
0
100
AcDbLine
10
305.60000000000002
20
-1.1000000000000001
30
0
11
310
21
-1.1000000000000001
31
0
0
LINE
5
469
100
AcDbEntity
8
0
100
AcDbLine
10
290.60000000000002
20
-1.8369701987210294e-17
30
0
11
290.60000000000002
21
-1.1000000000000001
31
0
0
LINE
5
470
100
AcDbEntity
8
0
100
AcDbLine
10
287.80000000000001
20
-1.8369701987210294e-17
30
0
11
287.80000000000001
21
-1.1000000000000001
31
0
0
LINE
5
471
100
AcDbEntity
8
0
100
AcDbLine
10
308.89999999999998
20
-1.8369701987210294e-17
30
0
11
308.89999999999998
21
-1.1000000000000001
31
0
0
LINE
5
472
100
AcDbEntity
8
0
100
AcDbLine
10
290
20
-1.8369701987210294e-17
30
0
11
290
21
-1.1000000000000001
31
0
0
LINE
5
473
100
AcDbEntity
8
0
100
AcDbLine
10
310
20
-1.8369701987210294e-17
30
0
11
310
21
-1.1000000000000001
31
0
0
LINE
5
474
100
AcDbEntity
8
0
100
AcDbLine
10
303.89999999999998
20
-1.8369701987210294e-17
30
0
11
303.89999999999998
21
-1.1000000000000001
31
0
0
LINE
5
475
100
AcDbEntity
8
0
100
AcDbLine
10
286.70000000000005
20
-1.8369701987210294e-17
30
0
11
286.70000000000005
21
-1.1000000000000001
31
0
0
LINE
5
476
100
AcDbEntity
8
0
100
AcDbLine
10
301.70000000000005
20
-1.8369701987210294e-17
30
0
11
301.70000000000005
21
-1.1000000000000001
31
0
0
LINE
5
477
100
AcDbEntity
8
0
100
AcDbLine
10
310.60000000000002
20
-1.8369701987210294e-17
30
0
11
310.60000000000002
21
-1.1000000000000001
31
0
0
LINE
5
478
100
AcDbEntity
8
0
100
AcDbLine
10
282.80000000000001
20
-1.8369701987210294e-17
30
0
11
282.80000000000001
21
-1.1000000000000001
31
0
0
LINE
5
479
100
AcDbEntity
8
0
100
AcDbLine
10
315.60000000000002
20
-1.8369701987210294e-17
30
0
11
315.60000000000002
21
-1.1000000000000001
31
0
0
LINE
5
480
100
AcDbEntity
8
0
100
AcDbLine
10
311.70000000000005
20
-1.8369701987210294e-17
30
0
11
311.70000000000005
21
-1.1000000000000001
31
0
0
LINE
5
481
100
AcDbEntity
8
0
100
AcDbLine
10
280.60000000000002
20
-1.1000000000000001
30
0
11
285
21
-1.1000000000000001
31
0
0
LINE
5
482
100
AcDbEntity
8
0
100
AcDbLine
10
285.60000000000002
20
-1.8369701987210294e-17
30
0
11
285.60000000000002
21
-1.1000000000000001
31
0
0
LINE
5
483
100
AcDbEntity
8
0
100
AcDbLine
10
317.80000000000001
20
-1.8369701987210294e-17
30
0
11
317.80000000000001
21
-1.1000000000000001
31
0
0
LINE
5
484
100
AcDbEntity
8
0
100
AcDbLine
10
318.89999999999998
20
-1.8369701987210294e-17
30
0
11
318.89999999999998
21
-1.1000000000000001
31
0
0
LINE
5
485
100
AcDbEntity
8
0
100
AcDbLine
10
285.60000000000002
20
-1.1000000000000001
30
0
11
290
21
-1.1000000000000001
31
0
0
LINE
5
486
100
AcDbEntity
8
0
100
AcDbLine
10
320
20
-1.8369701987210294e-17
30
0
11
320
21
-1.1000000000000001
31
0
0
LINE
5
487
100
AcDbEntity
8
0
100
AcDbLine
10
315.60000000000002
20
-1.1000000000000001
30
0
11
320
21
-1.1000000000000001
31
0
0
LINE
5
488
100
AcDbEntity
8
0
100
AcDbLine
10
285
20
-1.8369701987210294e-17
30
0
11
285
21
-1.1000000000000001
31
0
0
LINE
5
489
100
AcDbEntity
8
0
100
AcDbLine
10
310.60000000000002
20
-1.1000000000000001
30
0
11
315
21
-1.1000000000000001
31
0
0
LINE
5
490
100
AcDbEntity
8
0
100
AcDbLine
10
283.89999999999998
20
-1.8369701987210294e-17
30
0
11
283.89999999999998
21
-1.1000000000000001
31
0
0
LINE
5
491
100
AcDbEntity
8
0
100
AcDbLine
10
315
20
-1.8369701987210294e-17
30
0
11
315
21
-1.1000000000000001
31
0
0
LINE
5
492
100
AcDbEntity
8
0
100
AcDbLine
10
316.70000000000005
20
-1.8369701987210294e-17
30
0
11
316.70000000000005
21
-1.1000000000000001
31
0
0
LINE
5
493
100
AcDbEntity
8
0
100
AcDbLine
10
312.80000000000001
20
-1.8369701987210294e-17
30
0
11
312.80000000000001
21
-1.1000000000000001
31
0
0
LINE
5
494
100
AcDbEntity
8
0
100
AcDbLine
10
281.70000000000005
20
-1.8369701987210294e-17
30
0
11
281.70000000000005
21
-1.1000000000000001
31
0
0
LINE
5
495
100
AcDbEntity
8
0
100
AcDbLine
10
313.89999999999998
20
-1.8369701987210294e-17
30
0
11
313.89999999999998
21
-1.1000000000000001
31
0
0
LINE
5
496
100
AcDbEntity
8
0
100
AcDbLine
10
280.60000000000002
20
-1.8369701987210294e-17
30
0
11
280.60000000000002
21
-1.1000000000000001
31
0
0
LINE
5
497
100
AcDbEntity
8
0
100
AcDbLine
10
288.89999999999998
20
-1.8369701987210294e-17
30
0
11
288.89999999999998
21
-1.1000000000000001
31
0
0
LINE
5
498
100
AcDbEntity
8
0
100
AcDbLine
10
333.89999999999998
20
-1.8369701987210294e-17
30
0
11
333.89999999999998
21
-1.1000000000000001
31
0
0
LINE
5
499
100
AcDbEntity
8
0
100
AcDbLine
10
340.60000000000002
20
-1.8369701987210294e-17
30
0
11
340.60000000000002
21
-1.1000000000000001
31
0
0
LINE
5
500
100
AcDbEntity
8
0
100
AcDbLine
10
340
20
-1.8369701987210294e-17
30
0
11
340
21
-1.1000000000000001
31
0
0
LINE
5
501
100
AcDbEntity
8
0
100
AcDbLine
10
345
20
-1.8369701987210294e-17
30
0
11
345
21
-1.1000000000000001
31
0
0
LINE
5
502
100
AcDbEntity
8
0
100
AcDbLine
10
335
20
-1.8369701987210294e-17
30
0
11
335
21
-1.1000000000000001
31
0
0
LINE
5
503
100
AcDbEntity
8
0
100
AcDbLine
10
347.80000000000001
20
-1.8369701987210294e-17
30
0
11
347.80000000000001
21
-1.1000000000000001
31
0
0
LINE
5
504
100
AcDbEntity
8
0
100
AcDbLine
10
337.80000000000001
20
-1.8369701987210294e-17
30
0
11
337.80000000000001
21
-1.1000000000000001
31
0
0
LINE
5
505
100
AcDbEntity
8
0
100
AcDbLine
10
330.60000000000002
20
-1.1000000000000001
30
0
11
335
21
-1.1000000000000001
31
0
0
LINE
5
506
100
AcDbEntity
8
0
100
AcDbLine
10
331.70000000000005
20
-1.8369701987210294e-17
30
0
11
331.70000000000005
21
-1.1000000000000001
31
0
0
LINE
5
507
100
AcDbEntity
8
0
100
AcDbLine
10
336.70000000000005
20
-1.8369701987210294e-17
30
0
11
336.70000000000005
21
-1.1000000000000001
31
0
0
LINE
5
508
100
AcDbEntity
8
0
100
AcDbLine
10
335.60000000000002
20
-1.1000000000000001
30
0
11
340
21
-1.1000000000000001
31
0
0
LINE
5
509
100
AcDbEntity
8
0
100
AcDbLine
10
332.80000000000001
20
-1.8369701987210294e-17
30
0
11
332.80000000000001
21
-1.1000000000000001
31
0
0
LINE
5
510
100
AcDbEntity
8
0
100
AcDbLine
10
340.60000000000002
20
-1.1000000000000001
30
0
11
345
21
-1.1000000000000001
31
0
0
LINE
5
511
100
AcDbEntity
8
0
100
AcDbLine
10
335.60000000000002
20
-1.8369701987210294e-17
30
0
11
335.60000000000002
21
-1.1000000000000001
31
0
0
LINE
5
512
100
AcDbEntity
8
0
100
AcDbLine
10
338.89999999999998
20
-1.8369701987210294e-17
30
0
11
338.89999999999998
21
-1.1000000000000001
31
0
0
LINE
5
513
100
AcDbEntity
8
0
100
AcDbLine
10
346.70000000000005
20
-1.8369701987210294e-17
30
0
11
346.70000000000005
21
-1.1000000000000001
31
0
0
LINE
5
514
100
AcDbEntity
8
0
100
AcDbLine
10
342.80000000000001
20
-1.8369701987210294e-17
30
0
11
342.80000000000001
21
-1.1000000000000001
31
0
0
LINE
5
515
100
AcDbEntity
8
0
100
AcDbLine
10
345.60000000000002
20
-1.8369701987210294e-17
30
0
11
345.60000000000002
21
-1.1000000000000001
31
0
0
LINE
5
516
100
AcDbEntity
8
0
100
AcDbLine
10
345.60000000000002
20
-1.1000000000000001
30
0
11
350
21
-1.1000000000000001
31
0
0
LINE
5
517
100
AcDbEntity
8
0
100
AcDbLine
10
330.60000000000002
20
-1.8369701987210294e-17
30
0
11
330.60000000000002
21
-1.1000000000000001
31
0
0
LINE
5
518
100
AcDbEntity
8
0
100
AcDbLine
10
327.80000000000001
20
-1.8369701987210294e-17
30
0
11
327.80000000000001
21
-1.1000000000000001
31
0
0
LINE
5
519
100
AcDbEntity
8
0
100
AcDbLine
10
348.89999999999998
20
-1.8369701987210294e-17
30
0
11
348.89999999999998
21
-1.1000000000000001
31
0
0
LINE
5
520
100
AcDbEntity
8
0
100
AcDbLine
10
330
20
-1.8369701987210294e-17
30
0
11
330
21
-1.1000000000000001
31
0
0
LINE
5
521
100
AcDbEntity
8
0
100
AcDbLine
10
350
20
-1.8369701987210294e-17
30
0
11
350
21
-1.1000000000000001
31
0
0
LINE
5
522
100
AcDbEntity
8
0
100
AcDbLine
10
343.89999999999998
20
-1.8369701987210294e-17
30
0
11
343.89999999999998
21
-1.1000000000000001
31
0
0
LINE
5
523
100
AcDbEntity
8
0
100
AcDbLine
10
326.70000000000005
20
-1.8369701987210294e-17
30
0
11
326.70000000000005
21
-1.1000000000000001
31
0
0
LINE
5
524
100
AcDbEntity
8
0
100
AcDbLine
10
341.70000000000005
20
-1.8369701987210294e-17
30
0
11
341.70000000000005
21
-1.1000000000000001
31
0
0
LINE
5
525
100
AcDbEntity
8
0
100
AcDbLine
10
350.60000000000002
20
-1.8369701987210294e-17
30
0
11
350.60000000000002
21
-1.1000000000000001
31
0
0
LINE
5
526
100
AcDbEntity
8
0
100
AcDbLine
10
322.80000000000001
20
-1.8369701987210294e-17
30
0
11
322.80000000000001
21
-1.1000000000000001
31
0
0
LINE
5
527
100
AcDbEntity
8
0
100
AcDbLine
10
355.60000000000002
20
-1.8369701987210294e-17
30
0
11
355.60000000000002
21
-1.1000000000000001
31
0
0
LINE
5
528
100
AcDbEntity
8
0
100
AcDbLine
10
351.70000000000005
20
-1.8369701987210294e-17
30
0
11
351.70000000000005
21
-1.1000000000000001
31
0
0
LINE
5
529
100
AcDbEntity
8
0
100
AcDbLine
10
320.60000000000002
20
-1.1000000000000001
30
0
11
325
21
-1.1000000000000001
31
0
0
LINE
5
530
100
AcDbEntity
8
0
100
AcDbLine
10
325.60000000000002
20
-1.8369701987210294e-17
30
0
11
325.60000000000002
21
-1.1000000000000001
31
0
0
LINE
5
531
100
AcDbEntity
8
0
100
AcDbLine
10
357.80000000000001
20
-1.8369701987210294e-17
30
0
11
357.80000000000001
21
-1.1000000000000001
31
0
0
LINE
5
532
100
AcDbEntity
8
0
100
AcDbLine
10
358.89999999999998
20
-1.8369701987210294e-17
30
0
11
358.89999999999998
21
-1.1000000000000001
31
0
0
LINE
5
533
100
AcDbEntity
8
0
100
AcDbLine
10
325.60000000000002
20
-1.1000000000000001
30
0
11
330
21
-1.1000000000000001
31
0
0
LINE
5
534
100
AcDbEntity
8
0
100
AcDbLine
10
360
20
-1.8369701987210294e-17
30
0
11
360
21
-1.1000000000000001
31
0
0
LINE
5
535
100
AcDbEntity
8
0
100
AcDbLine
10
355.60000000000002
20
-1.1000000000000001
30
0
11
360
21
-1.1000000000000001
31
0
0
LINE
5
536
100
AcDbEntity
8
0
100
AcDbLine
10
325
20
-1.8369701987210294e-17
30
0
11
325
21
-1.1000000000000001
31
0
0
LINE
5
537
100
AcDbEntity
8
0
100
AcDbLine
10
350.60000000000002
20
-1.1000000000000001
30
0
11
355
21
-1.1000000000000001
31
0
0
LINE
5
538
100
AcDbEntity
8
0
100
AcDbLine
10
323.89999999999998
20
-1.8369701987210294e-17
30
0
11
323.89999999999998
21
-1.1000000000000001
31
0
0
LINE
5
539
100
AcDbEntity
8
0
100
AcDbLine
10
355
20
-1.8369701987210294e-17
30
0
11
355
21
-1.1000000000000001
31
0
0
LINE
5
540
100
AcDbEntity
8
0
100
AcDbLine
10
356.70000000000005
20
-1.8369701987210294e-17
30
0
11
356.70000000000005
21
-1.1000000000000001
31
0
0
LINE
5
541
100
AcDbEntity
8
0
100
AcDbLine
10
352.80000000000001
20
-1.8369701987210294e-17
30
0
11
352.80000000000001
21
-1.1000000000000001
31
0
0
LINE
5
542
100
AcDbEntity
8
0
100
AcDbLine
10
321.70000000000005
20
-1.8369701987210294e-17
30
0
11
321.70000000000005
21
-1.1000000000000001
31
0
0
LINE
5
543
100
AcDbEntity
8
0
100
AcDbLine
10
353.89999999999998
20
-1.8369701987210294e-17
30
0
11
353.89999999999998
21
-1.1000000000000001
31
0
0
LINE
5
544
100
AcDbEntity
8
0
100
AcDbLine
10
320.60000000000002
20
-1.8369701987210294e-17
30
0
11
320.60000000000002
21
-1.1000000000000001
31
0
0
LINE
5
545
100
AcDbEntity
8
0
100
AcDbLine
10
328.89999999999998
20
-1.8369701987210294e-17
30
0
11
328.89999999999998
21
-1.1000000000000001
31
0
0
LINE
5
546
100
AcDbEntity
8
0
100
AcDbLine
10
373.89999999999998
20
-1.8369701987210294e-17
30
0
11
373.89999999999998
21
-1.1000000000000001
31
0
0
LINE
5
547
100
AcDbEntity
8
0
100
AcDbLine
10
380.60000000000002
20
-1.8369701987210294e-17
30
0
11
380.60000000000002
21
-1.1000000000000001
31
0
0
LINE
5
548
100
AcDbEntity
8
0
100
AcDbLine
10
380
20
-1.8369701987210294e-17
30
0
11
380
21
-1.1000000000000001
31
0
0
LINE
5
549
100
AcDbEntity
8
0
100
AcDbLine
10
385
20
-1.8369701987210294e-17
30
0
11
385
21
-1.1000000000000001
31
0
0
LINE
5
550
100
AcDbEntity
8
0
100
AcDbLine
10
375
20
-1.8369701987210294e-17
30
0
11
375
21
-1.1000000000000001
31
0
0
LINE
5
551
100
AcDbEntity
8
0
100
AcDbLine
10
387.80000000000001
20
-1.8369701987210294e-17
30
0
11
387.80000000000001
21
-1.1000000000000001
31
0
0
LINE
5
552
100
AcDbEntity
8
0
100
AcDbLine
10
377.80000000000001
20
-1.8369701987210294e-17
30
0
11
377.80000000000001
21
-1.1000000000000001
31
0
0
LINE
5
553
100
AcDbEntity
8
0
100
AcDbLine
10
370.60000000000002
20
-1.1000000000000001
30
0
11
375
21
-1.1000000000000001
31
0
0
LINE
5
554
100
AcDbEntity
8
0
100
AcDbLine
10
371.70000000000005
20
-1.8369701987210294e-17
30
0
11
371.70000000000005
21
-1.1000000000000001
31
0
0
LINE
5
555
100
AcDbEntity
8
0
100
AcDbLine
10
376.70000000000005
20
-1.8369701987210294e-17
30
0
11
376.70000000000005
21
-1.1000000000000001
31
0
0
LINE
5
556
100
AcDbEntity
8
0
100
AcDbLine
10
375.60000000000002
20
-1.1000000000000001
30
0
11
380
21
-1.1000000000000001
31
0
0
LINE
5
557
100
AcDbEntity
8
0
100
AcDbLine
10
372.80000000000001
20
-1.8369701987210294e-17
30
0
11
372.80000000000001
21
-1.1000000000000001
31
0
0
LINE
5
558
100
AcDbEntity
8
0
100
AcDbLine
10
380.60000000000002
20
-1.1000000000000001
30
0
11
385
21
-1.1000000000000001
31
0
0
LINE
5
559
100
AcDbEntity
8
0
100
AcDbLine
10
375.60000000000002
20
-1.8369701987210294e-17
30
0
11
375.60000000000002
21
-1.1000000000000001
31
0
0
LINE
5
560
100
AcDbEntity
8
0
100
AcDbLine
10
378.89999999999998
20
-1.8369701987210294e-17
30
0
11
378.89999999999998
21
-1.1000000000000001
31
0
0
LINE
5
561
100
AcDbEntity
8
0
100
AcDbLine
10
386.70000000000005
20
-1.8369701987210294e-17
30
0
11
386.70000000000005
21
-1.1000000000000001
31
0
0
LINE
5
562
100
AcDbEntity
8
0
100
AcDbLine
10
382.80000000000001
20
-1.8369701987210294e-17
30
0
11
382.80000000000001
21
-1.1000000000000001
31
0
0
LINE
5
563
100
AcDbEntity
8
0
100
AcDbLine
10
385.60000000000002
20
-1.8369701987210294e-17
30
0
11
385.60000000000002
21
-1.1000000000000001
31
0
0
LINE
5
564
100
AcDbEntity
8
0
100
AcDbLine
10
385.60000000000002
20
-1.1000000000000001
30
0
11
390
21
-1.1000000000000001
31
0
0
LINE
5
565
100
AcDbEntity
8
0
100
AcDbLine
10
370.60000000000002
20
-1.8369701987210294e-17
30
0
11
370.60000000000002
21
-1.1000000000000001
31
0
0
LINE
5
566
100
AcDbEntity
8
0
100
AcDbLine
10
367.80000000000001
20
-1.8369701987210294e-17
30
0
11
367.80000000000001
21
-1.1000000000000001
31
0
0
LINE
5
567
100
AcDbEntity
8
0
100
AcDbLine
10
388.89999999999998
20
-1.8369701987210294e-17
30
0
11
388.89999999999998
21
-1.1000000000000001
31
0
0
LINE
5
568
100
AcDbEntity
8
0
100
AcDbLine
10
370
20
-1.8369701987210294e-17
30
0
11
370
21
-1.1000000000000001
31
0
0
LINE
5
569
100
AcDbEntity
8
0
100
AcDbLine
10
390
20
-1.8369701987210294e-17
30
0
11
390
21
-1.1000000000000001
31
0
0
LINE
5
570
100
AcDbEntity
8
0
100
AcDbLine
10
383.89999999999998
20
-1.8369701987210294e-17
30
0
11
383.89999999999998
21
-1.1000000000000001
31
0
0
LINE
5
571
100
AcDbEntity
8
0
100
AcDbLine
10
366.70000000000005
20
-1.8369701987210294e-17
30
0
11
366.70000000000005
21
-1.1000000000000001
31
0
0
LINE
5
572
100
AcDbEntity
8
0
100
AcDbLine
10
381.70000000000005
20
-1.8369701987210294e-17
30
0
11
381.70000000000005
21
-1.1000000000000001
31
0
0
LINE
5
573
100
AcDbEntity
8
0
100
AcDbLine
10
390.60000000000002
20
-1.8369701987210294e-17
30
0
11
390.60000000000002
21
-1.1000000000000001
31
0
0
LINE
5
574
100
AcDbEntity
8
0
100
AcDbLine
10
362.80000000000001
20
-1.8369701987210294e-17
30
0
11
362.80000000000001
21
-1.1000000000000001
31
0
0
LINE
5
575
100
AcDbEntity
8
0
100
AcDbLine
10
395.60000000000002
20
-1.8369701987210294e-17
30
0
11
395.60000000000002
21
-1.1000000000000001
31
0
0
LINE
5
576
100
AcDbEntity
8
0
100
AcDbLine
10
391.70000000000005
20
-1.8369701987210294e-17
30
0
11
391.70000000000005
21
-1.1000000000000001
31
0
0
LINE
5
577
100
AcDbEntity
8
0
100
AcDbLine
10
360.60000000000002
20
-1.1000000000000001
30
0
11
365
21
-1.1000000000000001
31
0
0
LINE
5
578
100
AcDbEntity
8
0
100
AcDbLine
10
365.60000000000002
20
-1.8369701987210294e-17
30
0
11
365.60000000000002
21
-1.1000000000000001
31
0
0
LINE
5
579
100
AcDbEntity
8
0
100
AcDbLine
10
397.80000000000001
20
-1.8369701987210294e-17
30
0
11
397.80000000000001
21
-1.1000000000000001
31
0
0
LINE
5
580
100
AcDbEntity
8
0
100
AcDbLine
10
398.89999999999998
20
-1.8369701987210294e-17
30
0
11
398.89999999999998
21
-1.1000000000000001
31
0
0
LINE
5
581
100
AcDbEntity
8
0
100
AcDbLine
10
365.60000000000002
20
-1.1000000000000001
30
0
11
370
21
-1.1000000000000001
31
0
0
LINE
5
582
100
AcDbEntity
8
0
100
AcDbLine
10
400
20
-1.8369701987210294e-17
30
0
11
400
21
-1.1000000000000001
31
0
0
LINE
5
583
100
AcDbEntity
8
0
100
AcDbLine
10
395.60000000000002
20
-1.1000000000000001
30
0
11
400
21
-1.1000000000000001
31
0
0
LINE
5
584
100
AcDbEntity
8
0
100
AcDbLine
10
365
20
-1.8369701987210294e-17
30
0
11
365
21
-1.1000000000000001
31
0
0
LINE
5
585
100
AcDbEntity
8
0
100
AcDbLine
10
390.60000000000002
20
-1.1000000000000001
30
0
11
395
21
-1.1000000000000001
31
0
0
LINE
5
586
100
AcDbEntity
8
0
100
AcDbLine
10
363.89999999999998
20
-1.8369701987210294e-17
30
0
11
363.89999999999998
21
-1.1000000000000001
31
0
0
LINE
5
587
100
AcDbEntity
8
0
100
AcDbLine
10
395
20
-1.8369701987210294e-17
30
0
11
395
21
-1.1000000000000001
31
0
0
LINE
5
588
100
AcDbEntity
8
0
100
AcDbLine
10
396.70000000000005
20
-1.8369701987210294e-17
30
0
11
396.70000000000005
21
-1.1000000000000001
31
0
0
LINE
5
589
100
AcDbEntity
8
0
100
AcDbLine
10
392.80000000000001
20
-1.8369701987210294e-17
30
0
11
392.80000000000001
21
-1.1000000000000001
31
0
0
LINE
5
590
100
AcDbEntity
8
0
100
AcDbLine
10
361.70000000000005
20
-1.8369701987210294e-17
30
0
11
361.70000000000005
21
-1.1000000000000001
31
0
0
LINE
5
591
100
AcDbEntity
8
0
100
AcDbLine
10
393.89999999999998
20
-1.8369701987210294e-17
30
0
11
393.89999999999998
21
-1.1000000000000001
31
0
0
LINE
5
592
100
AcDbEntity
8
0
100
AcDbLine
10
360.60000000000002
20
-1.8369701987210294e-17
30
0
11
360.60000000000002
21
-1.1000000000000001
31
0
0
LINE
5
593
100
AcDbEntity
8
0
100
AcDbLine
10
368.89999999999998
20
-1.8369701987210294e-17
30
0
11
368.89999999999998
21
-1.1000000000000001
31
0
0
LINE
5
594
100
AcDbEntity
8
0
100
AcDbLine
10
413.89999999999998
20
-1.8369701987210294e-17
30
0
11
413.89999999999998
21
-1.1000000000000001
31
0
0
LINE
5
595
100
AcDbEntity
8
0
100
AcDbLine
10
420.60000000000002
20
-1.8369701987210294e-17
30
0
11
420.60000000000002
21
-1.1000000000000001
31
0
0
LINE
5
596
100
AcDbEntity
8
0
100
AcDbLine
10
420
20
-1.8369701987210294e-17
30
0
11
420
21
-1.1000000000000001
31
0
0
LINE
5
597
100
AcDbEntity
8
0
100
AcDbLine
10
425
20
-1.8369701987210294e-17
30
0
11
425
21
-1.1000000000000001
31
0
0
LINE
5
598
100
AcDbEntity
8
0
100
AcDbLine
10
415
20
-1.8369701987210294e-17
30
0
11
415
21
-1.1000000000000001
31
0
0
LINE
5
599
100
AcDbEntity
8
0
100
AcDbLine
10
427.80000000000001
20
-1.8369701987210294e-17
30
0
11
427.80000000000001
21
-1.1000000000000001
31
0
0
LINE
5
600
100
AcDbEntity
8
0
100
AcDbLine
10
417.80000000000001
20
-1.8369701987210294e-17
30
0
11
417.80000000000001
21
-1.1000000000000001
31
0
0
LINE
5
601
100
AcDbEntity
8
0
100
AcDbLine
10
410.60000000000002
20
-1.1000000000000001
30
0
11
415
21
-1.1000000000000001
31
0
0
LINE
5
602
100
AcDbEntity
8
0
100
AcDbLine
10
411.70000000000005
20
-1.8369701987210294e-17
30
0
11
411.70000000000005
21
-1.1000000000000001
31
0
0
LINE
5
603
100
AcDbEntity
8
0
100
AcDbLine
10
416.70000000000005
20
-1.8369701987210294e-17
30
0
11
416.70000000000005
21
-1.1000000000000001
31
0
0
LINE
5
604
100
AcDbEntity
8
0
100
AcDbLine
10
415.60000000000002
20
-1.1000000000000001
30
0
11
420
21
-1.1000000000000001
31
0
0
LINE
5
605
100
AcDbEntity
8
0
100
AcDbLine
10
412.80000000000001
20
-1.8369701987210294e-17
30
0
11
412.80000000000001
21
-1.1000000000000001
31
0
0
LINE
5
606
100
AcDbEntity
8
0
100
AcDbLine
10
420.60000000000002
20
-1.1000000000000001
30
0
11
425
21
-1.1000000000000001
31
0
0
LINE
5
607
100
AcDbEntity
8
0
100
AcDbLine
10
415.60000000000002
20
-1.8369701987210294e-17
30
0
11
415.60000000000002
21
-1.1000000000000001
31
0
0
LINE
5
608
100
AcDbEntity
8
0
100
AcDbLine
10
418.89999999999998
20
-1.8369701987210294e-17
30
0
11
418.89999999999998
21
-1.1000000000000001
31
0
0
LINE
5
609
100
AcDbEntity
8
0
100
AcDbLine
10
426.70000000000005
20
-1.8369701987210294e-17
30
0
11
426.70000000000005
21
-1.1000000000000001
31
0
0
LINE
5
610
100
AcDbEntity
8
0
100
AcDbLine
10
422.80000000000001
20
-1.8369701987210294e-17
30
0
11
422.80000000000001
21
-1.1000000000000001
31
0
0
LINE
5
611
100
AcDbEntity
8
0
100
AcDbLine
10
425.60000000000002
20
-1.8369701987210294e-17
30
0
11
425.60000000000002
21
-1.1000000000000001
31
0
0
LINE
5
612
100
AcDbEntity
8
0
100
AcDbLine
10
425.60000000000002
20
-1.1000000000000001
30
0
11
430
21
-1.1000000000000001
31
0
0
LINE
5
613
100
AcDbEntity
8
0
100
AcDbLine
10
410.60000000000002
20
-1.8369701987210294e-17
30
0
11
410.60000000000002
21
-1.1000000000000001
31
0
0
LINE
5
614
100
AcDbEntity
8
0
100
AcDbLine
10
407.80000000000001
20
-1.8369701987210294e-17
30
0
11
407.80000000000001
21
-1.1000000000000001
31
0
0
LINE
5
615
100
AcDbEntity
8
0
100
AcDbLine
10
428.89999999999998
20
-1.8369701987210294e-17
30
0
11
428.89999999999998
21
-1.1000000000000001
31
0
0
LINE
5
616
100
AcDbEntity
8
0
100
AcDbLine
10
410
20
-1.8369701987210294e-17
30
0
11
410
21
-1.1000000000000001
31
0
0
LINE
5
617
100
AcDbEntity
8
0
100
AcDbLine
10
430
20
-1.8369701987210294e-17
30
0
11
430
21
-1.1000000000000001
31
0
0
LINE
5
618
100
AcDbEntity
8
0
100
AcDbLine
10
423.89999999999998
20
-1.8369701987210294e-17
30
0
11
423.89999999999998
21
-1.1000000000000001
31
0
0
LINE
5
619
100
AcDbEntity
8
0
100
AcDbLine
10
406.70000000000005
20
-1.8369701987210294e-17
30
0
11
406.70000000000005
21
-1.1000000000000001
31
0
0
LINE
5
620
100
AcDbEntity
8
0
100
AcDbLine
10
421.70000000000005
20
-1.8369701987210294e-17
30
0
11
421.70000000000005
21
-1.1000000000000001
31
0
0
LINE
5
621
100
AcDbEntity
8
0
100
AcDbLine
10
430.60000000000002
20
-1.8369701987210294e-17
30
0
11
430.60000000000002
21
-1.1000000000000001
31
0
0
LINE
5
622
100
AcDbEntity
8
0
100
AcDbLine
10
402.80000000000001
20
-1.8369701987210294e-17
30
0
11
402.80000000000001
21
-1.1000000000000001
31
0
0
LINE
5
623
100
AcDbEntity
8
0
100
AcDbLine
10
435.60000000000002
20
-1.8369701987210294e-17
30
0
11
435.60000000000002
21
-1.1000000000000001
31
0
0
LINE
5
624
100
AcDbEntity
8
0
100
AcDbLine
10
431.70000000000005
20
-1.8369701987210294e-17
30
0
11
431.70000000000005
21
-1.1000000000000001
31
0
0
LINE
5
625
100
AcDbEntity
8
0
100
AcDbLine
10
400.60000000000002
20
-1.1000000000000001
30
0
11
405
21
-1.1000000000000001
31
0
0
LINE
5
626
100
AcDbEntity
8
0
100
AcDbLine
10
405.60000000000002
20
-1.8369701987210294e-17
30
0
11
405.60000000000002
21
-1.1000000000000001
31
0
0
LINE
5
627
100
AcDbEntity
8
0
100
AcDbLine
10
437.80000000000001
20
-1.8369701987210294e-17
30
0
11
437.80000000000001
21
-1.1000000000000001
31
0
0
LINE
5
628
100
AcDbEntity
8
0
100
AcDbLine
10
438.89999999999998
20
-1.8369701987210294e-17
30
0
11
438.89999999999998
21
-1.1000000000000001
31
0
0
LINE
5
629
100
AcDbEntity
8
0
100
AcDbLine
10
405.60000000000002
20
-1.1000000000000001
30
0
11
410
21
-1.1000000000000001
31
0
0
LINE
5
630
100
AcDbEntity
8
0
100
AcDbLine
10
440
20
-1.8369701987210294e-17
30
0
11
440
21
-1.1000000000000001
31
0
0
LINE
5
631
100
AcDbEntity
8
0
100
AcDbLine
10
435.60000000000002
20
-1.1000000000000001
30
0
11
440
21
-1.1000000000000001
31
0
0
LINE
5
632
100
AcDbEntity
8
0
100
AcDbLine
10
405
20
-1.8369701987210294e-17
30
0
11
405
21
-1.1000000000000001
31
0
0
LINE
5
633
100
AcDbEntity
8
0
100
AcDbLine
10
430.60000000000002
20
-1.1000000000000001
30
0
11
435
21
-1.1000000000000001
31
0
0
LINE
5
634
100
AcDbEntity
8
0
100
AcDbLine
10
403.89999999999998
20
-1.8369701987210294e-17
30
0
11
403.89999999999998
21
-1.1000000000000001
31
0
0
LINE
5
635
100
AcDbEntity
8
0
100
AcDbLine
10
435
20
-1.8369701987210294e-17
30
0
11
435
21
-1.1000000000000001
31
0
0
LINE
5
636
100
AcDbEntity
8
0
100
AcDbLine
10
436.70000000000005
20
-1.8369701987210294e-17
30
0
11
436.70000000000005
21
-1.1000000000000001
31
0
0
LINE
5
637
100
AcDbEntity
8
0
100
AcDbLine
10
432.80000000000001
20
-1.8369701987210294e-17
30
0
11
432.80000000000001
21
-1.1000000000000001
31
0
0
LINE
5
638
100
AcDbEntity
8
0
100
AcDbLine
10
401.70000000000005
20
-1.8369701987210294e-17
30
0
11
401.70000000000005
21
-1.1000000000000001
31
0
0
LINE
5
639
100
AcDbEntity
8
0
100
AcDbLine
10
433.89999999999998
20
-1.8369701987210294e-17
30
0
11
433.89999999999998
21
-1.1000000000000001
31
0
0
LINE
5
640
100
AcDbEntity
8
0
100
AcDbLine
10
400.60000000000002
20
-1.8369701987210294e-17
30
0
11
400.60000000000002
21
-1.1000000000000001
31
0
0
LINE
5
641
100
AcDbEntity
8
0
100
AcDbLine
10
408.89999999999998
20
-1.8369701987210294e-17
30
0
11
408.89999999999998
21
-1.1000000000000001
31
0
0
LINE
5
642
100
AcDbEntity
8
0
100
AcDbLine
10
453.89999999999998
20
-1.8369701987210294e-17
30
0
11
453.89999999999998
21
-1.1000000000000001
31
0
0
LINE
5
643
100
AcDbEntity
8
0
100
AcDbLine
10
460.60000000000002
20
-1.8369701987210294e-17
30
0
11
460.60000000000002
21
-1.1000000000000001
31
0
0
LINE
5
644
100
AcDbEntity
8
0
100
AcDbLine
10
460
20
-1.8369701987210294e-17
30
0
11
460
21
-1.1000000000000001
31
0
0
LINE
5
645
100
AcDbEntity
8
0
100
AcDbLine
10
465
20
-1.8369701987210294e-17
30
0
11
465
21
-1.1000000000000001
31
0
0
LINE
5
646
100
AcDbEntity
8
0
100
AcDbLine
10
455
20
-1.8369701987210294e-17
30
0
11
455
21
-1.1000000000000001
31
0
0
LINE
5
647
100
AcDbEntity
8
0
100
AcDbLine
10
467.80000000000001
20
-1.8369701987210294e-17
30
0
11
467.80000000000001
21
-1.1000000000000001
31
0
0
LINE
5
648
100
AcDbEntity
8
0
100
AcDbLine
10
457.80000000000001
20
-1.8369701987210294e-17
30
0
11
457.80000000000001
21
-1.1000000000000001
31
0
0
LINE
5
649
100
AcDbEntity
8
0
100
AcDbLine
10
450.60000000000002
20
-1.1000000000000001
30
0
11
455
21
-1.1000000000000001
31
0
0
LINE
5
650
100
AcDbEntity
8
0
100
AcDbLine
10
451.70000000000005
20
-1.8369701987210294e-17
30
0
11
451.70000000000005
21
-1.1000000000000001
31
0
0
LINE
5
651
100
AcDbEntity
8
0
100
AcDbLine
10
456.70000000000005
20
-1.8369701987210294e-17
30
0
11
456.70000000000005
21
-1.1000000000000001
31
0
0
LINE
5
652
100
AcDbEntity
8
0
100
AcDbLine
10
455.60000000000002
20
-1.1000000000000001
30
0
11
460
21
-1.1000000000000001
31
0
0
LINE
5
653
100
AcDbEntity
8
0
100
AcDbLine
10
452.80000000000001
20
-1.8369701987210294e-17
30
0
11
452.80000000000001
21
-1.1000000000000001
31
0
0
LINE
5
654
100
AcDbEntity
8
0
100
AcDbLine
10
460.60000000000002
20
-1.1000000000000001
30
0
11
465
21
-1.1000000000000001
31
0
0
LINE
5
655
100
AcDbEntity
8
0
100
AcDbLine
10
455.60000000000002
20
-1.8369701987210294e-17
30
0
11
455.60000000000002
21
-1.1000000000000001
31
0
0
LINE
5
656
100
AcDbEntity
8
0
100
AcDbLine
10
458.89999999999998
20
-1.8369701987210294e-17
30
0
11
458.89999999999998
21
-1.1000000000000001
31
0
0
LINE
5
657
100
AcDbEntity
8
0
100
AcDbLine
10
466.70000000000005
20
-1.8369701987210294e-17
30
0
11
466.70000000000005
21
-1.1000000000000001
31
0
0
LINE
5
658
100
AcDbEntity
8
0
100
AcDbLine
10
462.80000000000001
20
-1.8369701987210294e-17
30
0
11
462.80000000000001
21
-1.1000000000000001
31
0
0
LINE
5
659
100
AcDbEntity
8
0
100
AcDbLine
10
465.60000000000002
20
-1.8369701987210294e-17
30
0
11
465.60000000000002
21
-1.1000000000000001
31
0
0
LINE
5
660
100
AcDbEntity
8
0
100
AcDbLine
10
465.60000000000002
20
-1.1000000000000001
30
0
11
470
21
-1.1000000000000001
31
0
0
LINE
5
661
100
AcDbEntity
8
0
100
AcDbLine
10
450.60000000000002
20
-1.8369701987210294e-17
30
0
11
450.60000000000002
21
-1.1000000000000001
31
0
0
LINE
5
662
100
AcDbEntity
8
0
100
AcDbLine
10
447.80000000000001
20
-1.8369701987210294e-17
30
0
11
447.80000000000001
21
-1.1000000000000001
31
0
0
LINE
5
663
100
AcDbEntity
8
0
100
AcDbLine
10
468.89999999999998
20
-1.8369701987210294e-17
30
0
11
468.89999999999998
21
-1.1000000000000001
31
0
0
LINE
5
664
100
AcDbEntity
8
0
100
AcDbLine
10
450
20
-1.8369701987210294e-17
30
0
11
450
21
-1.1000000000000001
31
0
0
LINE
5
665
100
AcDbEntity
8
0
100
AcDbLine
10
470
20
-1.8369701987210294e-17
30
0
11
470
21
-1.1000000000000001
31
0
0
LINE
5
666
100
AcDbEntity
8
0
100
AcDbLine
10
463.89999999999998
20
-1.8369701987210294e-17
30
0
11
463.89999999999998
21
-1.1000000000000001
31
0
0
LINE
5
667
100
AcDbEntity
8
0
100
AcDbLine
10
446.70000000000005
20
-1.8369701987210294e-17
30
0
11
446.70000000000005
21
-1.1000000000000001
31
0
0
LINE
5
668
100
AcDbEntity
8
0
100
AcDbLine
10
461.70000000000005
20
-1.8369701987210294e-17
30
0
11
461.70000000000005
21
-1.1000000000000001
31
0
0
LINE
5
669
100
AcDbEntity
8
0
100
AcDbLine
10
470.60000000000002
20
-1.8369701987210294e-17
30
0
11
470.60000000000002
21
-1.1000000000000001
31
0
0
LINE
5
670
100
AcDbEntity
8
0
100
AcDbLine
10
442.80000000000001
20
-1.8369701987210294e-17
30
0
11
442.80000000000001
21
-1.1000000000000001
31
0
0
LINE
5
671
100
AcDbEntity
8
0
100
AcDbLine
10
475.60000000000002
20
-1.8369701987210294e-17
30
0
11
475.60000000000002
21
-1.1000000000000001
31
0
0
LINE
5
672
100
AcDbEntity
8
0
100
AcDbLine
10
471.70000000000005
20
-1.8369701987210294e-17
30
0
11
471.70000000000005
21
-1.1000000000000001
31
0
0
LINE
5
673
100
AcDbEntity
8
0
100
AcDbLine
10
440.60000000000002
20
-1.1000000000000001
30
0
11
445
21
-1.1000000000000001
31
0
0
LINE
5
674
100
AcDbEntity
8
0
100
AcDbLine
10
445.60000000000002
20
-1.8369701987210294e-17
30
0
11
445.60000000000002
21
-1.1000000000000001
31
0
0
LINE
5
675
100
AcDbEntity
8
0
100
AcDbLine
10
477.80000000000001
20
-1.8369701987210294e-17
30
0
11
477.80000000000001
21
-1.1000000000000001
31
0
0
LINE
5
676
100
AcDbEntity
8
0
100
AcDbLine
10
478.89999999999998
20
-1.8369701987210294e-17
30
0
11
478.89999999999998
21
-1.1000000000000001
31
0
0
LINE
5
677
100
AcDbEntity
8
0
100
AcDbLine
10
445.60000000000002
20
-1.1000000000000001
30
0
11
450
21
-1.1000000000000001
31
0
0
LINE
5
678
100
AcDbEntity
8
0
100
AcDbLine
10
480
20
-1.8369701987210294e-17
30
0
11
480
21
-1.1000000000000001
31
0
0
LINE
5
679
100
AcDbEntity
8
0
100
AcDbLine
10
475.60000000000002
20
-1.1000000000000001
30
0
11
480
21
-1.1000000000000001
31
0
0
LINE
5
680
100
AcDbEntity
8
0
100
AcDbLine
10
445
20
-1.8369701987210294e-17
30
0
11
445
21
-1.1000000000000001
31
0
0
LINE
5
681
100
AcDbEntity
8
0
100
AcDbLine
10
470.60000000000002
20
-1.1000000000000001
30
0
11
475
21
-1.1000000000000001
31
0
0
LINE
5
682
100
AcDbEntity
8
0
100
AcDbLine
10
443.89999999999998
20
-1.8369701987210294e-17
30
0
11
443.89999999999998
21
-1.1000000000000001
31
0
0
LINE
5
683
100
AcDbEntity
8
0
100
AcDbLine
10
475
20
-1.8369701987210294e-17
30
0
11
475
21
-1.1000000000000001
31
0
0
LINE
5
684
100
AcDbEntity
8
0
100
AcDbLine
10
476.70000000000005
20
-1.8369701987210294e-17
30
0
11
476.70000000000005
21
-1.1000000000000001
31
0
0
LINE
5
685
100
AcDbEntity
8
0
100
AcDbLine
10
472.80000000000001
20
-1.8369701987210294e-17
30
0
11
472.80000000000001
21
-1.1000000000000001
31
0
0
LINE
5
686
100
AcDbEntity
8
0
100
AcDbLine
10
441.70000000000005
20
-1.8369701987210294e-17
30
0
11
441.70000000000005
21
-1.1000000000000001
31
0
0
LINE
5
687
100
AcDbEntity
8
0
100
AcDbLine
10
473.89999999999998
20
-1.8369701987210294e-17
30
0
11
473.89999999999998
21
-1.1000000000000001
31
0
0
LINE
5
688
100
AcDbEntity
8
0
100
AcDbLine
10
440.60000000000002
20
-1.8369701987210294e-17
30
0
11
440.60000000000002
21
-1.1000000000000001
31
0
0
LINE
5
689
100
AcDbEntity
8
0
100
AcDbLine
10
448.89999999999998
20
-1.8369701987210294e-17
30
0
11
448.89999999999998
21
-1.1000000000000001
31
0
0
LINE
5
690
100
AcDbEntity
8
0
100
AcDbLine
10
0
20
0
30
0
11
480
21
0
31
0
0
LINE
5
691
100
AcDbEntity
8
0
100
AcDbLine
10
482.88675134594814
20
8.1000000000000014
30
0
11
480
21
3.1000000000000014
31
0
0
LINE
5
692
100
AcDbEntity
8
0
100
AcDbLine
10
482.88675134594814
20
5
30
0
11
480
21
0
31
0
0
LINE
5
693
100
AcDbEntity
8
0
100
AcDbLine
10
0
20
1
30
0
11
482.88675134594814
21
0.99999999999999867
31
0
0
LINE
5
694
100
AcDbEntity
8
0
100
AcDbLine
10
480
20
3.1000000000000014
30
0
11
482.88675134594814
21
3.0704634925987815
31
0
0
LINE
5
695
100
AcDbEntity
8
0
100
AcDbLine
10
482.88675134594814
20
8.1000000000000014
30
0
11
482.88675134594814
21
0
31
0
0
LINE
5
696
100
AcDbEntity
8
0
100
AcDbLine
10
482.88675134594814
20
0
30
0
11
480
21
0
31
0
0
LINE
5
697
100
AcDbEntity
8
0
100
AcDbLine
10
35.149999999999999
20
-4.8334407223474938e-19
30
0
11
35.450000000000003
21
-4.8334407223474938e-19
31
0
0
LINE
5
698
100
AcDbEntity
8
0
100
AcDbLine
10
40.150000000000006
20
-4.8334407223474938e-19
30
0
11
40.300000000000004
21
0.25980762113533173
31
0
0
LINE
5
699
100
AcDbEntity
8
0
100
AcDbLine
10
40.300000000000004
20
0.25980762113533173
30
0
11
40.450000000000003
21
-4.8334407223474938e-19
31
0
0
LINE
5
700
100
AcDbEntity
8
0
100
AcDbLine
10
80.300000000000011
20
0.25980762113533173
30
0
11
80.450000000000003
21
-4.8334407223474938e-19
31
0
0
LINE
5
701
100
AcDbEntity
8
0
100
AcDbLine
10
80.150000000000006
20
-4.8334407223474938e-19
30
0
11
80.300000000000011
21
0.25980762113533173
31
0
0
LINE
5
702
100
AcDbEntity
8
0
100
AcDbLine
10
120.30000000000001
20
0.25980762113533173
30
0
11
120.45
21
-4.8334407223474938e-19
31
0
0
LINE
5
703
100
AcDbEntity
8
0
100
AcDbLine
10
120.15000000000001
20
-4.8334407223474938e-19
30
0
11
120.30000000000001
21
0.25980762113533173
31
0
0
LINE
5
704
100
AcDbEntity
8
0
100
AcDbLine
10
160.30000000000001
20
0.25980762113533173
30
0
11
160.45000000000002
21
-4.8334407223474938e-19
31
0
0
LINE
5
705
100
AcDbEntity
8
0
100
AcDbLine
10
160.15000000000001
20
-4.8334407223474938e-19
30
0
11
160.30000000000001
21
0.25980762113533173
31
0
0
LINE
5
706
100
AcDbEntity
8
0
100
AcDbLine
10
200.30000000000001
20
0.25980762113533173
30
0
11
200.45000000000002
21
-4.8334407223474938e-19
31
0
0
LINE
5
707
100
AcDbEntity
8
0
100
AcDbLine
10
200.15000000000001
20
-4.8334407223474938e-19
30
0
11
200.30000000000001
21
0.25980762113533173
31
0
0
LINE
5
708
100
AcDbEntity
8
0
100
AcDbLine
10
240.30000000000001
20
0.25980762113533173
30
0
11
240.45000000000002
21
-4.8334407223474938e-19
31
0
0
LINE
5
709
100
AcDbEntity
8
0
100
AcDbLine
10
240.15000000000001
20
-4.8334407223474938e-19
30
0
11
240.30000000000001
21
0.25980762113533173
31
0
0
LINE
5
710
100
AcDbEntity
8
0
100
AcDbLine
10
280.30000000000001
20
0.25980762113533173
30
0
11
280.45000000000005
21
-4.8334407223474938e-19
31
0
0
LINE
5
711
100
AcDbEntity
8
0
100
AcDbLine
10
280.14999999999998
20
-4.8334407223474938e-19
30
0
11
280.30000000000001
21
0.25980762113533173
31
0
0
LINE
5
712
100
AcDbEntity
8
0
100
AcDbLine
10
320.30000000000001
20
0.25980762113533173
30
0
11
320.45000000000005
21
-4.8334407223474938e-19
31
0
0
LINE
5
713
100
AcDbEntity
8
0
100
AcDbLine
10
320.14999999999998
20
-4.8334407223474938e-19
30
0
11
320.30000000000001
21
0.25980762113533173
31
0
0
LINE
5
714
100
AcDbEntity
8
0
100
AcDbLine
10
360.30000000000001
20
0.25980762113533173
30
0
11
360.45000000000005
21
-4.8334407223474938e-19
31
0
0
LINE
5
715
100
AcDbEntity
8
0
100
AcDbLine
10
360.14999999999998
20
-4.8334407223474938e-19
30
0
11
360.30000000000001
21
0.25980762113533173
31
0
0
LINE
5
716
100
AcDbEntity
8
0
100
AcDbLine
10
400.30000000000001
20
0.25980762113533173
30
0
11
400.45000000000005
21
-4.8334407223474938e-19
31
0
0
LINE
5
717
100
AcDbEntity
8
0
100
AcDbLine
10
400.14999999999998
20
-4.8334407223474938e-19
30
0
11
400.30000000000001
21
0.25980762113533173
31
0
0
LINE
5
718
100
AcDbEntity
8
0
100
AcDbLine
10
440.30000000000001
20
0.25980762113533173
30
0
11
440.45000000000005
21
-4.8334407223474938e-19
31
0
0
LINE
5
719
100
AcDbEntity
8
0
100
AcDbLine
10
440.14999999999998
20
-4.8334407223474938e-19
30
0
11
440.30000000000001
21
0.25980762113533173
31
0
0
ENDSEC
0
SECTION
2
OBJECTS
0
DICTIONARY
5
C
100
AcDbDictionary
3
ACAD_GROUP
350
D
3
ACAD_MLINESTYLE
350
17
0
DICTIONARY
5
D
100
AcDbDictionary
0
DICTIONARY
5
1A
330
C
100
AcDbDictionary
0
DICTIONARY
5
17
100
AcDbDictionary
0
ENDSEC
0
EOF
