ISO-10303-21;
HEADER;
/* Generated by software containing ST-Developer
 * from STEP Tools, Inc. (www.steptools.com) 
 */

FILE_DESCRIPTION(
/* description */ (''),
/* implementation_level */ '2;1');

FILE_NAME(
/* name */ 'fnal18_top_f1.step',
/* time_stamp */ '2023-03-02T09:51:47-07:00',
/* author */ (''),
/* organization */ (''),
/* preprocessor_version */ 'ST-DEVELOPER v19.2',
/* originating_system */ 'Autodesk Translation Framework v11.17.0.187',

/* authorisation */ '');

FILE_SCHEMA (('AUTOMOTIVE_DESIGN { 1 0 10303 214 3 1 1 }'));
ENDSEC;

DATA;
#10=MECHANICAL_DESIGN_GEOMETRIC_PRESENTATION_REPRESENTATION('',(#13),#451);
#11=SHAPE_REPRESENTATION_RELATIONSHIP('SRR','None',#458,#12);
#12=ADVANCED_BREP_SHAPE_REPRESENTATION('',(#14),#450);
#13=STYLED_ITEM('',(#467),#14);
#14=MANIFOLD_SOLID_BREP('top f1',#271);
#15=PLANE('',#291);
#16=PLANE('',#292);
#17=PLANE('',#293);
#18=PLANE('',#294);
#19=PLANE('',#295);
#20=PLANE('',#296);
#21=PLANE('',#297);
#22=PLANE('',#298);
#23=PLANE('',#299);
#24=PLANE('',#300);
#25=PLANE('',#301);
#26=PLANE('',#302);
#27=FACE_OUTER_BOUND('',#41,.T.);
#28=FACE_OUTER_BOUND('',#42,.T.);
#29=FACE_OUTER_BOUND('',#43,.T.);
#30=FACE_OUTER_BOUND('',#44,.T.);
#31=FACE_OUTER_BOUND('',#45,.T.);
#32=FACE_OUTER_BOUND('',#46,.T.);
#33=FACE_OUTER_BOUND('',#47,.T.);
#34=FACE_OUTER_BOUND('',#48,.T.);
#35=FACE_OUTER_BOUND('',#49,.T.);
#36=FACE_OUTER_BOUND('',#50,.T.);
#37=FACE_OUTER_BOUND('',#51,.T.);
#38=FACE_OUTER_BOUND('',#52,.T.);
#39=FACE_OUTER_BOUND('',#53,.T.);
#40=FACE_OUTER_BOUND('',#54,.T.);
#41=EDGE_LOOP('',(#183,#184,#185,#186));
#42=EDGE_LOOP('',(#187,#188,#189,#190));
#43=EDGE_LOOP('',(#191,#192,#193,#194,#195,#196));
#44=EDGE_LOOP('',(#197,#198,#199,#200));
#45=EDGE_LOOP('',(#201,#202,#203,#204,#205,#206,#207,#208));
#46=EDGE_LOOP('',(#209,#210,#211,#212,#213,#214));
#47=EDGE_LOOP('',(#215,#216,#217,#218));
#48=EDGE_LOOP('',(#219,#220,#221,#222));
#49=EDGE_LOOP('',(#223,#224,#225,#226));
#50=EDGE_LOOP('',(#227,#228,#229,#230));
#51=EDGE_LOOP('',(#231,#232,#233,#234));
#52=EDGE_LOOP('',(#235,#236,#237,#238,#239,#240,#241,#242));
#53=EDGE_LOOP('',(#243,#244,#245,#246,#247,#248,#249,#250));
#54=EDGE_LOOP('',(#251,#252,#253,#254));
#55=LINE('',#379,#87);
#56=LINE('',#382,#88);
#57=LINE('',#388,#89);
#58=LINE('',#391,#90);
#59=LINE('',#394,#91);
#60=LINE('',#396,#92);
#61=LINE('',#398,#93);
#62=LINE('',#400,#94);
#63=LINE('',#401,#95);
#64=LINE('',#404,#96);
#65=LINE('',#405,#97);
#66=LINE('',#408,#98);
#67=LINE('',#410,#99);
#68=LINE('',#411,#100);
#69=LINE('',#413,#101);
#70=LINE('',#414,#102);
#71=LINE('',#417,#103);
#72=LINE('',#419,#104);
#73=LINE('',#421,#105);
#74=LINE('',#423,#106);
#75=LINE('',#424,#107);
#76=LINE('',#426,#108);
#77=LINE('',#428,#109);
#78=LINE('',#432,#110);
#79=LINE('',#434,#111);
#80=LINE('',#436,#112);
#81=LINE('',#437,#113);
#82=LINE('',#439,#114);
#83=LINE('',#441,#115);
#84=LINE('',#442,#116);
#85=LINE('',#444,#117);
#86=LINE('',#446,#118);
#87=VECTOR('',#309,10.);
#88=VECTOR('',#312,10.);
#89=VECTOR('',#317,10.);
#90=VECTOR('',#320,10.);
#91=VECTOR('',#323,10.);
#92=VECTOR('',#324,10.);
#93=VECTOR('',#325,10.);
#94=VECTOR('',#326,10.);
#95=VECTOR('',#327,10.);
#96=VECTOR('',#330,10.);
#97=VECTOR('',#331,10.);
#98=VECTOR('',#334,10.);
#99=VECTOR('',#335,10.);
#100=VECTOR('',#336,10.);
#101=VECTOR('',#337,10.);
#102=VECTOR('',#338,10.);
#103=VECTOR('',#341,10.);
#104=VECTOR('',#342,10.);
#105=VECTOR('',#343,10.);
#106=VECTOR('',#344,10.);
#107=VECTOR('',#345,10.);
#108=VECTOR('',#348,10.);
#109=VECTOR('',#351,10.);
#110=VECTOR('',#354,10.);
#111=VECTOR('',#355,10.);
#112=VECTOR('',#356,10.);
#113=VECTOR('',#357,10.);
#114=VECTOR('',#360,10.);
#115=VECTOR('',#363,10.);
#116=VECTOR('',#364,10.);
#117=VECTOR('',#367,10.);
#118=VECTOR('',#370,10.);
#119=CIRCLE('',#286,1.90000000000001);
#120=CIRCLE('',#287,1.90000000000001);
#121=CIRCLE('',#289,1.89999999999998);
#122=CIRCLE('',#290,1.89999999999998);
#123=VERTEX_POINT('',#375);
#124=VERTEX_POINT('',#376);
#125=VERTEX_POINT('',#378);
#126=VERTEX_POINT('',#380);
#127=VERTEX_POINT('',#384);
#128=VERTEX_POINT('',#385);
#129=VERTEX_POINT('',#387);
#130=VERTEX_POINT('',#389);
#131=VERTEX_POINT('',#393);
#132=VERTEX_POINT('',#395);
#133=VERTEX_POINT('',#397);
#134=VERTEX_POINT('',#399);
#135=VERTEX_POINT('',#403);
#136=VERTEX_POINT('',#407);
#137=VERTEX_POINT('',#409);
#138=VERTEX_POINT('',#412);
#139=VERTEX_POINT('',#416);
#140=VERTEX_POINT('',#418);
#141=VERTEX_POINT('',#420);
#142=VERTEX_POINT('',#422);
#143=VERTEX_POINT('',#430);
#144=VERTEX_POINT('',#431);
#145=VERTEX_POINT('',#433);
#146=VERTEX_POINT('',#435);
#147=EDGE_CURVE('',#123,#124,#119,.T.);
#148=EDGE_CURVE('',#125,#123,#55,.T.);
#149=EDGE_CURVE('',#126,#125,#120,.T.);
#150=EDGE_CURVE('',#124,#126,#56,.T.);
#151=EDGE_CURVE('',#127,#128,#121,.T.);
#152=EDGE_CURVE('',#129,#127,#57,.T.);
#153=EDGE_CURVE('',#130,#129,#122,.T.);
#154=EDGE_CURVE('',#128,#130,#58,.T.);
#155=EDGE_CURVE('',#131,#124,#59,.T.);
#156=EDGE_CURVE('',#132,#131,#60,.T.);
#157=EDGE_CURVE('',#132,#133,#61,.T.);
#158=EDGE_CURVE('',#133,#134,#62,.T.);
#159=EDGE_CURVE('',#123,#134,#63,.T.);
#160=EDGE_CURVE('',#126,#135,#64,.T.);
#161=EDGE_CURVE('',#135,#131,#65,.T.);
#162=EDGE_CURVE('',#136,#125,#66,.T.);
#163=EDGE_CURVE('',#137,#136,#67,.T.);
#164=EDGE_CURVE('',#137,#130,#68,.T.);
#165=EDGE_CURVE('',#129,#138,#69,.T.);
#166=EDGE_CURVE('',#138,#135,#70,.T.);
#167=EDGE_CURVE('',#128,#139,#71,.T.);
#168=EDGE_CURVE('',#139,#140,#72,.T.);
#169=EDGE_CURVE('',#141,#140,#73,.T.);
#170=EDGE_CURVE('',#142,#141,#74,.T.);
#171=EDGE_CURVE('',#142,#127,#75,.T.);
#172=EDGE_CURVE('',#139,#137,#76,.T.);
#173=EDGE_CURVE('',#142,#138,#77,.T.);
#174=EDGE_CURVE('',#143,#144,#78,.T.);
#175=EDGE_CURVE('',#143,#145,#79,.T.);
#176=EDGE_CURVE('',#146,#145,#80,.T.);
#177=EDGE_CURVE('',#144,#146,#81,.T.);
#178=EDGE_CURVE('',#134,#136,#82,.T.);
#179=EDGE_CURVE('',#133,#145,#83,.T.);
#180=EDGE_CURVE('',#146,#132,#84,.T.);
#181=EDGE_CURVE('',#144,#141,#85,.T.);
#182=EDGE_CURVE('',#140,#143,#86,.T.);
#183=ORIENTED_EDGE('',*,*,#147,.F.);
#184=ORIENTED_EDGE('',*,*,#148,.F.);
#185=ORIENTED_EDGE('',*,*,#149,.F.);
#186=ORIENTED_EDGE('',*,*,#150,.F.);
#187=ORIENTED_EDGE('',*,*,#151,.F.);
#188=ORIENTED_EDGE('',*,*,#152,.F.);
#189=ORIENTED_EDGE('',*,*,#153,.F.);
#190=ORIENTED_EDGE('',*,*,#154,.F.);
#191=ORIENTED_EDGE('',*,*,#147,.T.);
#192=ORIENTED_EDGE('',*,*,#155,.F.);
#193=ORIENTED_EDGE('',*,*,#156,.F.);
#194=ORIENTED_EDGE('',*,*,#157,.T.);
#195=ORIENTED_EDGE('',*,*,#158,.T.);
#196=ORIENTED_EDGE('',*,*,#159,.F.);
#197=ORIENTED_EDGE('',*,*,#150,.T.);
#198=ORIENTED_EDGE('',*,*,#160,.T.);
#199=ORIENTED_EDGE('',*,*,#161,.T.);
#200=ORIENTED_EDGE('',*,*,#155,.T.);
#201=ORIENTED_EDGE('',*,*,#149,.T.);
#202=ORIENTED_EDGE('',*,*,#162,.F.);
#203=ORIENTED_EDGE('',*,*,#163,.F.);
#204=ORIENTED_EDGE('',*,*,#164,.T.);
#205=ORIENTED_EDGE('',*,*,#153,.T.);
#206=ORIENTED_EDGE('',*,*,#165,.T.);
#207=ORIENTED_EDGE('',*,*,#166,.T.);
#208=ORIENTED_EDGE('',*,*,#160,.F.);
#209=ORIENTED_EDGE('',*,*,#151,.T.);
#210=ORIENTED_EDGE('',*,*,#167,.T.);
#211=ORIENTED_EDGE('',*,*,#168,.T.);
#212=ORIENTED_EDGE('',*,*,#169,.F.);
#213=ORIENTED_EDGE('',*,*,#170,.F.);
#214=ORIENTED_EDGE('',*,*,#171,.T.);
#215=ORIENTED_EDGE('',*,*,#154,.T.);
#216=ORIENTED_EDGE('',*,*,#164,.F.);
#217=ORIENTED_EDGE('',*,*,#172,.F.);
#218=ORIENTED_EDGE('',*,*,#167,.F.);
#219=ORIENTED_EDGE('',*,*,#152,.T.);
#220=ORIENTED_EDGE('',*,*,#171,.F.);
#221=ORIENTED_EDGE('',*,*,#173,.T.);
#222=ORIENTED_EDGE('',*,*,#165,.F.);
#223=ORIENTED_EDGE('',*,*,#174,.F.);
#224=ORIENTED_EDGE('',*,*,#175,.T.);
#225=ORIENTED_EDGE('',*,*,#176,.F.);
#226=ORIENTED_EDGE('',*,*,#177,.F.);
#227=ORIENTED_EDGE('',*,*,#148,.T.);
#228=ORIENTED_EDGE('',*,*,#159,.T.);
#229=ORIENTED_EDGE('',*,*,#178,.T.);
#230=ORIENTED_EDGE('',*,*,#162,.T.);
#231=ORIENTED_EDGE('',*,*,#176,.T.);
#232=ORIENTED_EDGE('',*,*,#179,.F.);
#233=ORIENTED_EDGE('',*,*,#157,.F.);
#234=ORIENTED_EDGE('',*,*,#180,.F.);
#235=ORIENTED_EDGE('',*,*,#173,.F.);
#236=ORIENTED_EDGE('',*,*,#170,.T.);
#237=ORIENTED_EDGE('',*,*,#181,.F.);
#238=ORIENTED_EDGE('',*,*,#177,.T.);
#239=ORIENTED_EDGE('',*,*,#180,.T.);
#240=ORIENTED_EDGE('',*,*,#156,.T.);
#241=ORIENTED_EDGE('',*,*,#161,.F.);
#242=ORIENTED_EDGE('',*,*,#166,.F.);
#243=ORIENTED_EDGE('',*,*,#182,.F.);
#244=ORIENTED_EDGE('',*,*,#168,.F.);
#245=ORIENTED_EDGE('',*,*,#172,.T.);
#246=ORIENTED_EDGE('',*,*,#163,.T.);
#247=ORIENTED_EDGE('',*,*,#178,.F.);
#248=ORIENTED_EDGE('',*,*,#158,.F.);
#249=ORIENTED_EDGE('',*,*,#179,.T.);
#250=ORIENTED_EDGE('',*,*,#175,.F.);
#251=ORIENTED_EDGE('',*,*,#174,.T.);
#252=ORIENTED_EDGE('',*,*,#181,.T.);
#253=ORIENTED_EDGE('',*,*,#169,.T.);
#254=ORIENTED_EDGE('',*,*,#182,.T.);
#255=CYLINDRICAL_SURFACE('',#285,1.90000000000001);
#256=CYLINDRICAL_SURFACE('',#288,1.89999999999998);
#257=ADVANCED_FACE('',(#27),#255,.F.);
#258=ADVANCED_FACE('',(#28),#256,.F.);
#259=ADVANCED_FACE('',(#29),#15,.T.);
#260=ADVANCED_FACE('',(#30),#16,.T.);
#261=ADVANCED_FACE('',(#31),#17,.T.);
#262=ADVANCED_FACE('',(#32),#18,.T.);
#263=ADVANCED_FACE('',(#33),#19,.T.);
#264=ADVANCED_FACE('',(#34),#20,.T.);
#265=ADVANCED_FACE('',(#35),#21,.T.);
#266=ADVANCED_FACE('',(#36),#22,.T.);
#267=ADVANCED_FACE('',(#37),#23,.F.);
#268=ADVANCED_FACE('',(#38),#24,.T.);
#269=ADVANCED_FACE('',(#39),#25,.T.);
#270=ADVANCED_FACE('',(#40),#26,.T.);
#271=CLOSED_SHELL('',(#257,#258,#259,#260,#261,#262,#263,#264,#265,#266,
#267,#268,#269,#270));
#272=DERIVED_UNIT_ELEMENT(#274,1.);
#273=DERIVED_UNIT_ELEMENT(#453,-3.);
#274=(
MASS_UNIT()
NAMED_UNIT(*)
SI_UNIT(.KILO.,.GRAM.)
);
#275=DERIVED_UNIT((#272,#273));
#276=MEASURE_REPRESENTATION_ITEM('density measure',
POSITIVE_RATIO_MEASURE(7850.),#275);
#277=PROPERTY_DEFINITION_REPRESENTATION(#282,#279);
#278=PROPERTY_DEFINITION_REPRESENTATION(#283,#280);
#279=REPRESENTATION('material name',(#281),#450);
#280=REPRESENTATION('density',(#276),#450);
#281=DESCRIPTIVE_REPRESENTATION_ITEM('Steel','Steel');
#282=PROPERTY_DEFINITION('material property','material name',#460);
#283=PROPERTY_DEFINITION('material property','density of part',#460);
#284=AXIS2_PLACEMENT_3D('placement',#373,#303,#304);
#285=AXIS2_PLACEMENT_3D('',#374,#305,#306);
#286=AXIS2_PLACEMENT_3D('',#377,#307,#308);
#287=AXIS2_PLACEMENT_3D('',#381,#310,#311);
#288=AXIS2_PLACEMENT_3D('',#383,#313,#314);
#289=AXIS2_PLACEMENT_3D('',#386,#315,#316);
#290=AXIS2_PLACEMENT_3D('',#390,#318,#319);
#291=AXIS2_PLACEMENT_3D('',#392,#321,#322);
#292=AXIS2_PLACEMENT_3D('',#402,#328,#329);
#293=AXIS2_PLACEMENT_3D('',#406,#332,#333);
#294=AXIS2_PLACEMENT_3D('',#415,#339,#340);
#295=AXIS2_PLACEMENT_3D('',#425,#346,#347);
#296=AXIS2_PLACEMENT_3D('',#427,#349,#350);
#297=AXIS2_PLACEMENT_3D('',#429,#352,#353);
#298=AXIS2_PLACEMENT_3D('',#438,#358,#359);
#299=AXIS2_PLACEMENT_3D('',#440,#361,#362);
#300=AXIS2_PLACEMENT_3D('',#443,#365,#366);
#301=AXIS2_PLACEMENT_3D('',#445,#368,#369);
#302=AXIS2_PLACEMENT_3D('',#447,#371,#372);
#303=DIRECTION('axis',(0.,0.,1.));
#304=DIRECTION('refdir',(1.,0.,0.));
#305=DIRECTION('center_axis',(0.,-1.,0.));
#306=DIRECTION('ref_axis',(0.,0.,1.));
#307=DIRECTION('center_axis',(0.,1.,0.));
#308=DIRECTION('ref_axis',(0.,0.,1.));
#309=DIRECTION('',(0.,-1.,0.));
#310=DIRECTION('center_axis',(0.,-1.,0.));
#311=DIRECTION('ref_axis',(0.,0.,1.));
#312=DIRECTION('',(0.,1.,0.));
#313=DIRECTION('center_axis',(0.,-1.,0.));
#314=DIRECTION('ref_axis',(-5.84327907697458E-16,0.,-1.));
#315=DIRECTION('center_axis',(0.,1.,0.));
#316=DIRECTION('ref_axis',(-5.84327907697458E-16,0.,-1.));
#317=DIRECTION('',(0.,-1.,0.));
#318=DIRECTION('center_axis',(0.,-1.,0.));
#319=DIRECTION('ref_axis',(-5.84327907697458E-16,0.,-1.));
#320=DIRECTION('',(0.,1.,0.));
#321=DIRECTION('center_axis',(0.,-1.,0.));
#322=DIRECTION('ref_axis',(0.,0.,1.));
#323=DIRECTION('',(0.,0.,1.));
#324=DIRECTION('',(-1.,0.,0.));
#325=DIRECTION('',(0.,0.,1.));
#326=DIRECTION('',(-1.,0.,0.));
#327=DIRECTION('',(0.,0.,1.));
#328=DIRECTION('center_axis',(-1.,0.,0.));
#329=DIRECTION('ref_axis',(0.,0.,1.));
#330=DIRECTION('',(0.,0.,-1.));
#331=DIRECTION('',(0.,-1.,0.));
#332=DIRECTION('center_axis',(0.,1.,0.));
#333=DIRECTION('ref_axis',(0.,0.,-1.));
#334=DIRECTION('',(0.,0.,-1.));
#335=DIRECTION('',(-1.,0.,0.));
#336=DIRECTION('',(0.,0.,-1.));
#337=DIRECTION('',(0.,0.,-1.));
#338=DIRECTION('',(-1.,0.,0.));
#339=DIRECTION('center_axis',(0.,-1.,0.));
#340=DIRECTION('ref_axis',(0.,0.,1.));
#341=DIRECTION('',(0.,0.,1.));
#342=DIRECTION('',(-1.,0.,0.));
#343=DIRECTION('',(0.,0.,1.));
#344=DIRECTION('',(-1.,0.,0.));
#345=DIRECTION('',(0.,0.,1.));
#346=DIRECTION('center_axis',(1.,0.,0.));
#347=DIRECTION('ref_axis',(0.,0.,-1.));
#348=DIRECTION('',(0.,1.,0.));
#349=DIRECTION('center_axis',(1.,0.,0.));
#350=DIRECTION('ref_axis',(0.,0.,-1.));
#351=DIRECTION('',(0.,1.,0.));
#352=DIRECTION('center_axis',(0.,-1.,0.));
#353=DIRECTION('ref_axis',(0.,0.,1.));
#354=DIRECTION('',(0.,0.,-1.));
#355=DIRECTION('',(-1.,0.,0.));
#356=DIRECTION('',(0.,0.,1.));
#357=DIRECTION('',(-1.,0.,0.));
#358=DIRECTION('center_axis',(-1.,0.,0.));
#359=DIRECTION('ref_axis',(0.,0.,1.));
#360=DIRECTION('',(0.,1.,0.));
#361=DIRECTION('center_axis',(-1.,0.,0.));
#362=DIRECTION('ref_axis',(0.,0.,1.));
#363=DIRECTION('',(0.,1.,0.));
#364=DIRECTION('',(0.,-1.,0.));
#365=DIRECTION('center_axis',(0.,0.,-1.));
#366=DIRECTION('ref_axis',(0.,-1.,0.));
#367=DIRECTION('',(0.,-1.,0.));
#368=DIRECTION('center_axis',(0.,0.,1.));
#369=DIRECTION('ref_axis',(0.,1.,0.));
#370=DIRECTION('',(0.,1.,0.));
#371=DIRECTION('center_axis',(-1.,0.,0.));
#372=DIRECTION('ref_axis',(0.,0.,1.));
#373=CARTESIAN_POINT('',(0.,0.,0.));
#374=CARTESIAN_POINT('Origin',(-37.6,12.1542775618497,-245.257293920304));
#375=CARTESIAN_POINT('',(-37.6,6.95427756184966,-243.357293920304));
#376=CARTESIAN_POINT('',(-37.6,6.95427756184966,-247.157293920304));
#377=CARTESIAN_POINT('Origin',(-37.6,6.95427756184966,-245.257293920304));
#378=CARTESIAN_POINT('',(-37.6,12.1542775618497,-243.357293920304));
#379=CARTESIAN_POINT('',(-37.6,12.1542775618497,-243.357293920304));
#380=CARTESIAN_POINT('',(-37.6,12.1542775618497,-247.157293920304));
#381=CARTESIAN_POINT('Origin',(-37.6,12.1542775618497,-245.257293920304));
#382=CARTESIAN_POINT('',(-37.6,12.1542775618497,-247.157293920304));
#383=CARTESIAN_POINT('Origin',(2.2,12.1542775618497,-245.257293920304));
#384=CARTESIAN_POINT('',(2.2,6.95427756184966,-247.157293920304));
#385=CARTESIAN_POINT('',(2.2,6.95427756184966,-243.357293920304));
#386=CARTESIAN_POINT('Origin',(2.2,6.95427756184966,-245.257293920304));
#387=CARTESIAN_POINT('',(2.2,12.1542775618497,-247.157293920304));
#388=CARTESIAN_POINT('',(2.2,12.1542775618497,-247.157293920304));
#389=CARTESIAN_POINT('',(2.2,12.1542775618497,-243.357293920304));
#390=CARTESIAN_POINT('Origin',(2.2,12.1542775618497,-245.257293920304));
#391=CARTESIAN_POINT('',(2.2,12.1542775618497,-243.357293920304));
#392=CARTESIAN_POINT('Origin',(2.2,6.95427756184966,-250.117293920304));
#393=CARTESIAN_POINT('',(-37.6,6.95427756184966,-250.117293920304));
#394=CARTESIAN_POINT('',(-37.6,6.95427756184966,-249.257350968799));
#395=CARTESIAN_POINT('',(-35.45,6.95427756184966,-250.117293920304));
#396=CARTESIAN_POINT('',(2.2,6.95427756184966,-250.117293920304));
#397=CARTESIAN_POINT('',(-35.45,6.95427756184966,-241.007350968799));
#398=CARTESIAN_POINT('',(-35.45,6.95427756184966,-247.839808182428));
#399=CARTESIAN_POINT('',(-37.6,6.95427756184966,-241.007350968799));
#400=CARTESIAN_POINT('',(2.2,6.95427756184966,-241.007350968799));
#401=CARTESIAN_POINT('',(-37.6,6.95427756184966,-249.257350968799));
#402=CARTESIAN_POINT('Origin',(-37.6,9.55427756184966,-245.562322444552));
#403=CARTESIAN_POINT('',(-37.6,12.1542775618497,-250.117293920304));
#404=CARTESIAN_POINT('',(-37.6,12.1542775618497,-241.007350968799));
#405=CARTESIAN_POINT('',(-37.6,6.95427756184966,-250.117293920304));
#406=CARTESIAN_POINT('Origin',(2.2,12.1542775618497,-241.007350968799));
#407=CARTESIAN_POINT('',(-37.6,12.1542775618497,-241.007350968799));
#408=CARTESIAN_POINT('',(-37.6,12.1542775618497,-241.007350968799));
#409=CARTESIAN_POINT('',(2.2,12.1542775618497,-241.007350968799));
#410=CARTESIAN_POINT('',(2.2,12.1542775618497,-241.007350968799));
#411=CARTESIAN_POINT('',(2.2,12.1542775618497,-241.007350968799));
#412=CARTESIAN_POINT('',(2.2,12.1542775618497,-250.117293920304));
#413=CARTESIAN_POINT('',(2.2,12.1542775618497,-241.007350968799));
#414=CARTESIAN_POINT('',(2.2,12.1542775618497,-250.117293920304));
#415=CARTESIAN_POINT('Origin',(2.2,6.95427756184966,-250.117293920304));
#416=CARTESIAN_POINT('',(2.2,6.95427756184966,-241.007350968799));
#417=CARTESIAN_POINT('',(2.2,6.95427756184966,-249.257350968799));
#418=CARTESIAN_POINT('',(0.0500000000000009,6.95427756184966,-241.007350968799));
#419=CARTESIAN_POINT('',(2.2,6.95427756184966,-241.007350968799));
#420=CARTESIAN_POINT('',(0.0500000000000009,6.95427756184966,-250.117293920304));
#421=CARTESIAN_POINT('',(0.0500000000000009,6.95427756184966,-249.257350968799));
#422=CARTESIAN_POINT('',(2.2,6.95427756184966,-250.117293920304));
#423=CARTESIAN_POINT('',(2.2,6.95427756184966,-250.117293920304));
#424=CARTESIAN_POINT('',(2.2,6.95427756184966,-249.257350968799));
#425=CARTESIAN_POINT('Origin',(2.2,9.55427756184966,-245.562322444552));
#426=CARTESIAN_POINT('',(2.2,6.95427756184966,-241.007350968799));
#427=CARTESIAN_POINT('Origin',(2.2,9.55427756184966,-245.562322444552));
#428=CARTESIAN_POINT('',(2.2,6.95427756184966,-250.117293920304));
#429=CARTESIAN_POINT('Origin',(2.2,10.1542775618497,-250.117293920304));
#430=CARTESIAN_POINT('',(0.0500000000000009,10.1542775618497,-241.007350968799));
#431=CARTESIAN_POINT('',(0.0500000000000009,10.1542775618497,-250.117293920304));
#432=CARTESIAN_POINT('',(0.0500000000000009,10.1542775618497,-247.839808182428));
#433=CARTESIAN_POINT('',(-35.45,10.1542775618497,-241.007350968799));
#434=CARTESIAN_POINT('',(2.2,10.1542775618497,-241.007350968799));
#435=CARTESIAN_POINT('',(-35.45,10.1542775618497,-250.117293920304));
#436=CARTESIAN_POINT('',(-35.45,10.1542775618497,-247.839808182428));
#437=CARTESIAN_POINT('',(2.2,10.1542775618497,-250.117293920304));
#438=CARTESIAN_POINT('Origin',(-37.6,9.55427756184966,-245.562322444552));
#439=CARTESIAN_POINT('',(-37.6,6.95427756184966,-241.007350968799));
#440=CARTESIAN_POINT('Origin',(-35.45,9.55427756184966,-245.562322444552));
#441=CARTESIAN_POINT('',(-35.45,8.25427756184966,-241.007350968799));
#442=CARTESIAN_POINT('',(-35.45,10.8542775618497,-250.117293920304));
#443=CARTESIAN_POINT('Origin',(2.2,12.1542775618497,-250.117293920304));
#444=CARTESIAN_POINT('',(0.0500000000000009,6.95427756184966,-250.117293920304));
#445=CARTESIAN_POINT('Origin',(2.2,6.95427756184966,-241.007350968799));
#446=CARTESIAN_POINT('',(0.0500000000000009,6.95427756184966,-241.007350968799));
#447=CARTESIAN_POINT('Origin',(0.0500000000000009,9.55427756184966,-245.562322444552));
#448=UNCERTAINTY_MEASURE_WITH_UNIT(LENGTH_MEASURE(0.01),#452,
'DISTANCE_ACCURACY_VALUE',
'Maximum model space distance between geometric entities at asserted c
onnectivities');
#449=UNCERTAINTY_MEASURE_WITH_UNIT(LENGTH_MEASURE(0.01),#452,
'DISTANCE_ACCURACY_VALUE',
'Maximum model space distance between geometric entities at asserted c
onnectivities');
#450=(
GEOMETRIC_REPRESENTATION_CONTEXT(3)
GLOBAL_UNCERTAINTY_ASSIGNED_CONTEXT((#448))
GLOBAL_UNIT_ASSIGNED_CONTEXT((#452,#454,#455))
REPRESENTATION_CONTEXT('','3D')
);
#451=(
GEOMETRIC_REPRESENTATION_CONTEXT(3)
GLOBAL_UNCERTAINTY_ASSIGNED_CONTEXT((#449))
GLOBAL_UNIT_ASSIGNED_CONTEXT((#452,#454,#455))
REPRESENTATION_CONTEXT('','3D')
);
#452=(
LENGTH_UNIT()
NAMED_UNIT(*)
SI_UNIT(.MILLI.,.METRE.)
);
#453=(
LENGTH_UNIT()
NAMED_UNIT(*)
SI_UNIT($,.METRE.)
);
#454=(
NAMED_UNIT(*)
PLANE_ANGLE_UNIT()
SI_UNIT($,.RADIAN.)
);
#455=(
NAMED_UNIT(*)
SI_UNIT($,.STERADIAN.)
SOLID_ANGLE_UNIT()
);
#456=SHAPE_DEFINITION_REPRESENTATION(#457,#458);
#457=PRODUCT_DEFINITION_SHAPE('',$,#460);
#458=SHAPE_REPRESENTATION('',(#284),#450);
#459=PRODUCT_DEFINITION_CONTEXT('part definition',#464,'design');
#460=PRODUCT_DEFINITION('top f1','top f1',#461,#459);
#461=PRODUCT_DEFINITION_FORMATION('',$,#466);
#462=PRODUCT_RELATED_PRODUCT_CATEGORY('top f1','top f1',(#466));
#463=APPLICATION_PROTOCOL_DEFINITION('international standard',
'automotive_design',2009,#464);
#464=APPLICATION_CONTEXT(
'Core Data for Automotive Mechanical Design Process');
#465=PRODUCT_CONTEXT('part definition',#464,'mechanical');
#466=PRODUCT('top f1','top f1',$,(#465));
#467=PRESENTATION_STYLE_ASSIGNMENT((#468));
#468=SURFACE_STYLE_USAGE(.BOTH.,#469);
#469=SURFACE_SIDE_STYLE('',(#470));
#470=SURFACE_STYLE_FILL_AREA(#471);
#471=FILL_AREA_STYLE('Steel - Satin',(#472));
#472=FILL_AREA_STYLE_COLOUR('Steel - Satin',#473);
#473=COLOUR_RGB('Steel - Satin',0.627450980392157,0.627450980392157,0.627450980392157);
ENDSEC;
END-ISO-10303-21;
