 0 
SECTION
 2 
HEADER
 9 
$ACADVER
 1 
AC1004
 9 
$EXTMIN
 10 
0.0
 20 
-0.006
 9 
$EXTMAX
 10 
5.5
 20 
4.006
 9 
$LIMMIN
 10 
0.0
 20 
-0.006
 9 
$LIMMAX
 10 
5.5
 20 
4.006
 9 
$INSBASE
 10 
0.0
 20 
0.0
 9 
$VIEWCTR
 10 
2.75
 20 
2.0
 9 
$VIEWSIZE
 40 
4.012
 9 
$ORTHOMODE
 70 
 0 
 9 
$REGENMODE
 70 
 1 
 9 
$FILLMODE
 70 
 1 
 9 
$QTEXTMODE
 70 
 0 
 9 
$DRAGMODE
 70 
 2 
 9 
$LTSCALE
 40 
1.0
 9 
$OSMODE
 70 
 0 
 9 
$ATTMODE
 70 
 1 
 9 
$TEXTSIZE
 40 
0.2
 9 
$TRACEWID
 40 
0.05
 9 
$TEXTSTYLE
 7 
STANDARD
 9 
$CLAYER
 8 
0
 9 
$CELTYPE
 6 
BYLAYER
 9 
$CECOLOR
 62 
 256 
 9 
$DIMSCALE
 40 
1.0
 9 
$DIMLFAC
 40 
1.0
 9 
$LUNITS
 70 
 2 
 9 
$LUPREC
 70 
 4 
 9 
$AXISMODE
 70 
 0 
 9 
$AXISUNIT
 10 
0.0
 20 
0.0
 9 
$SKETCHINC
 40 
0.1
 9 
$MENU
 1 
acad
 9 
$ELEVATION
 40 
0.0
 9 
$THICKNESS
 40 
0.0
 9 
$VIEWDIR
 10 
0.0
 20 
0.0
 30 
1.0
 9 
$LIMCHECK
 70 
 0 
 9 
$BLIPMODE
 70 
 1 
 9 
$FASTZOOM
 70 
 1 
 9 
$SKPOLY
 70 
 0 
 9 
$ANGBASE
 50 
0.0
 9 
$ANGDIR
 70 
 0 
 9 
$PDMODE
 70 
 0 
 9 
$PDSIZE
 40 
0.0
 9 
$PLINEWID
 40 
0.0
 9 
$COORDS
 70 
 0 
 9 
$ATTDIA
 70 
 0 
 9 
$ATTREQ
 70 
 1 
 0 
ENDSEC
 0 
SECTION
 2 
TABLES
 0 
TABLE
 2 
LTYPE
 70 
 10 
 0 
LTYPE
 2 
CONTINUOUS
 70 
 64 
 3 
Solid line
 72 
 65 
 73 
 0 
 40 
0.0
 0 
ENDTAB
 0 
TABLE
 2 
LAYER
 70 
 153 
 0 
LAYER
 2 
0
 70 
 64 
 62 
 7 
 6 
CONTINUOUS
 0 
ENDTAB
 0 
ENDSEC
 0 
SECTION
 2 
BLOCKS
 0 
ENDSEC
 0 
SECTION
 2 
ENTITIES
 0 
LINE
 8 
0
 62 
 7 
 10 
0.0
 20 
4.0
 11 
5.5
 21 
4.0
 0 
LINE
 8 
0
 62 
 7 
 10 
5.5
 20 
4.0
 11 
5.5
 21 
0.0
 0 
LINE
 8 
0
 62 
 7 
 10 
5.5
 20 
0.0
 11 
0.0
 21 
0.0
 0 
LINE
 8 
0
 62 
 7 
 10 
0.0
 20 
0.0
 11 
0.0
 21 
4.0
 0 
LINE
 8 
0
 62 
 7 
 10 
1.685
 20 
2.422
 11 
1.715
 21 
2.422
 0 
LINE
 8 
0
 62 
 7 
 10 
1.715
 20 
2.422
 11 
1.715
 21 
2.327
 0 
LINE
 8 
0
 62 
 7 
 10 
1.715
 20 
2.327
 11 
1.685
 21 
2.327
 0 
LINE
 8 
0
 62 
 7 
 10 
1.685
 20 
2.327
 11 
1.685
 21 
2.422
 0 
LINE
 8 
0
 62 
 7 
 10 
1.735
 20 
2.422
 11 
1.765
 21 
2.422
 0 
LINE
 8 
0
 62 
 7 
 10 
1.765
 20 
2.422
 11 
1.765
 21 
2.327
 0 
LINE
 8 
0
 62 
 7 
 10 
1.765
 20 
2.327
 11 
1.735
 21 
2.327
 0 
LINE
 8 
0
 62 
 7 
 10 
1.735
 20 
2.327
 11 
1.735
 21 
2.422
 0 
LINE
 8 
0
 62 
 7 
 10 
1.785
 20 
2.422
 11 
1.815
 21 
2.422
 0 
LINE
 8 
0
 62 
 7 
 10 
1.815
 20 
2.422
 11 
1.815
 21 
2.327
 0 
LINE
 8 
0
 62 
 7 
 10 
1.815
 20 
2.327
 11 
1.785
 21 
2.327
 0 
LINE
 8 
0
 62 
 7 
 10 
1.785
 20 
2.327
 11 
1.785
 21 
2.422
 0 
LINE
 8 
0
 62 
 7 
 10 
1.585
 20 
2.422
 11 
1.615
 21 
2.422
 0 
LINE
 8 
0
 62 
 7 
 10 
1.615
 20 
2.422
 11 
1.615
 21 
2.327
 0 
LINE
 8 
0
 62 
 7 
 10 
1.615
 20 
2.327
 11 
1.585
 21 
2.327
 0 
LINE
 8 
0
 62 
 7 
 10 
1.585
 20 
2.327
 11 
1.585
 21 
2.422
 0 
LINE
 8 
0
 62 
 7 
 10 
1.585
 20 
2.262
 11 
1.615
 21 
2.262
 0 
LINE
 8 
0
 62 
 7 
 10 
1.615
 20 
2.262
 11 
1.615
 21 
2.167
 0 
LINE
 8 
0
 62 
 7 
 10 
1.615
 20 
2.167
 11 
1.585
 21 
2.167
 0 
LINE
 8 
0
 62 
 7 
 10 
1.585
 20 
2.167
 11 
1.585
 21 
2.262
 0 
LINE
 8 
0
 62 
 7 
 10 
1.785
 20 
2.262
 11 
1.815
 21 
2.262
 0 
LINE
 8 
0
 62 
 7 
 10 
1.815
 20 
2.262
 11 
1.815
 21 
2.167
 0 
LINE
 8 
0
 62 
 7 
 10 
1.815
 20 
2.167
 11 
1.785
 21 
2.167
 0 
LINE
 8 
0
 62 
 7 
 10 
1.785
 20 
2.167
 11 
1.785
 21 
2.262
 0 
LINE
 8 
0
 62 
 7 
 10 
1.635
 20 
2.262
 11 
1.665
 21 
2.262
 0 
LINE
 8 
0
 62 
 7 
 10 
1.665
 20 
2.262
 11 
1.665
 21 
2.167
 0 
LINE
 8 
0
 62 
 7 
 10 
1.665
 20 
2.167
 11 
1.635
 21 
2.167
 0 
LINE
 8 
0
 62 
 7 
 10 
1.635
 20 
2.167
 11 
1.635
 21 
2.262
 0 
LINE
 8 
0
 62 
 7 
 10 
1.685
 20 
2.262
 11 
1.715
 21 
2.262
 0 
LINE
 8 
0
 62 
 7 
 10 
1.715
 20 
2.262
 11 
1.715
 21 
2.167
 0 
LINE
 8 
0
 62 
 7 
 10 
1.715
 20 
2.167
 11 
1.685
 21 
2.167
 0 
LINE
 8 
0
 62 
 7 
 10 
1.685
 20 
2.167
 11 
1.685
 21 
2.262
 0 
LINE
 8 
0
 62 
 7 
 10 
1.735
 20 
2.262
 11 
1.765
 21 
2.262
 0 
LINE
 8 
0
 62 
 7 
 10 
1.765
 20 
2.262
 11 
1.765
 21 
2.167
 0 
LINE
 8 
0
 62 
 7 
 10 
1.765
 20 
2.167
 11 
1.735
 21 
2.167
 0 
LINE
 8 
0
 62 
 7 
 10 
1.735
 20 
2.167
 11 
1.735
 21 
2.262
 0 
LINE
 8 
0
 62 
 7 
 10 
1.635
 20 
2.422
 11 
1.665
 21 
2.422
 0 
LINE
 8 
0
 62 
 7 
 10 
1.665
 20 
2.422
 11 
1.665
 21 
2.327
 0 
LINE
 8 
0
 62 
 7 
 10 
1.665
 20 
2.327
 11 
1.635
 21 
2.327
 0 
LINE
 8 
0
 62 
 7 
 10 
1.635
 20 
2.327
 11 
1.635
 21 
2.422
 0 
LINE
 8 
0
 62 
 7 
 10 
1.633
 20 
2.325
 11 
1.658
 21 
2.325
 0 
LINE
 8 
0
 62 
 7 
 10 
1.658
 20 
2.325
 11 
1.658
 21 
2.283
 0 
LINE
 8 
0
 62 
 7 
 10 
1.658
 20 
2.283
 11 
1.65
 21 
2.275
 0 
LINE
 8 
0
 62 
 7 
 10 
1.65
 20 
2.275
 11 
1.633
 21 
2.275
 0 
LINE
 8 
0
 62 
 7 
 10 
1.633
 20 
2.275
 11 
1.625
 21 
2.283
 0 
LINE
 8 
0
 62 
 7 
 10 
1.683
 20 
2.317
 11 
1.692
 21 
2.325
 0 
LINE
 8 
0
 62 
 7 
 10 
1.692
 20 
2.325
 11 
1.692
 21 
2.275
 0 
LINE
 8 
0
 62 
 7 
 10 
1.683
 20 
2.275
 11 
1.7
 21 
2.275
 0 
LINE
 8 
0
 62 
 7 
 10 
1.725
 20 
2.317
 11 
1.733
 21 
2.325
 0 
LINE
 8 
0
 62 
 7 
 10 
1.733
 20 
2.325
 11 
1.75
 21 
2.325
 0 
LINE
 8 
0
 62 
 7 
 10 
1.75
 20 
2.325
 11 
1.758
 21 
2.317
 0 
LINE
 8 
0
 62 
 7 
 10 
1.758
 20 
2.317
 11 
1.758
 21 
2.308
 0 
LINE
 8 
0
 62 
 7 
 10 
1.758
 20 
2.308
 11 
1.75
 21 
2.3
 0 
LINE
 8 
0
 62 
 7 
 10 
1.75
 20 
2.3
 11 
1.742
 21 
2.3
 0 
LINE
 8 
0
 62 
 7 
 10 
1.75
 20 
2.3
 11 
1.758
 21 
2.292
 0 
LINE
 8 
0
 62 
 7 
 10 
1.758
 20 
2.292
 11 
1.758
 21 
2.283
 0 
LINE
 8 
0
 62 
 7 
 10 
1.758
 20 
2.283
 11 
1.75
 21 
2.275
 0 
LINE
 8 
0
 62 
 7 
 10 
1.75
 20 
2.275
 11 
1.733
 21 
2.275
 0 
LINE
 8 
0
 62 
 7 
 10 
1.733
 20 
2.275
 11 
1.725
 21 
2.283
 0 
LINE
 8 
0
 62 
 7 
 10 
2.385
 20 
2.422
 11 
2.415
 21 
2.422
 0 
LINE
 8 
0
 62 
 7 
 10 
2.415
 20 
2.422
 11 
2.415
 21 
2.327
 0 
LINE
 8 
0
 62 
 7 
 10 
2.415
 20 
2.327
 11 
2.385
 21 
2.327
 0 
LINE
 8 
0
 62 
 7 
 10 
2.385
 20 
2.327
 11 
2.385
 21 
2.422
 0 
LINE
 8 
0
 62 
 7 
 10 
2.435
 20 
2.422
 11 
2.465
 21 
2.422
 0 
LINE
 8 
0
 62 
 7 
 10 
2.465
 20 
2.422
 11 
2.465
 21 
2.327
 0 
LINE
 8 
0
 62 
 7 
 10 
2.465
 20 
2.327
 11 
2.435
 21 
2.327
 0 
LINE
 8 
0
 62 
 7 
 10 
2.435
 20 
2.327
 11 
2.435
 21 
2.422
 0 
LINE
 8 
0
 62 
 7 
 10 
2.485
 20 
2.422
 11 
2.515
 21 
2.422
 0 
LINE
 8 
0
 62 
 7 
 10 
2.515
 20 
2.422
 11 
2.515
 21 
2.327
 0 
LINE
 8 
0
 62 
 7 
 10 
2.515
 20 
2.327
 11 
2.485
 21 
2.327
 0 
LINE
 8 
0
 62 
 7 
 10 
2.485
 20 
2.327
 11 
2.485
 21 
2.422
 0 
LINE
 8 
0
 62 
 7 
 10 
2.285
 20 
2.422
 11 
2.315
 21 
2.422
 0 
LINE
 8 
0
 62 
 7 
 10 
2.315
 20 
2.422
 11 
2.315
 21 
2.327
 0 
LINE
 8 
0
 62 
 7 
 10 
2.315
 20 
2.327
 11 
2.285
 21 
2.327
 0 
LINE
 8 
0
 62 
 7 
 10 
2.285
 20 
2.327
 11 
2.285
 21 
2.422
 0 
LINE
 8 
0
 62 
 7 
 10 
2.285
 20 
2.262
 11 
2.315
 21 
2.262
 0 
LINE
 8 
0
 62 
 7 
 10 
2.315
 20 
2.262
 11 
2.315
 21 
2.167
 0 
LINE
 8 
0
 62 
 7 
 10 
2.315
 20 
2.167
 11 
2.285
 21 
2.167
 0 
LINE
 8 
0
 62 
 7 
 10 
2.285
 20 
2.167
 11 
2.285
 21 
2.262
 0 
LINE
 8 
0
 62 
 7 
 10 
2.485
 20 
2.262
 11 
2.515
 21 
2.262
 0 
LINE
 8 
0
 62 
 7 
 10 
2.515
 20 
2.262
 11 
2.515
 21 
2.167
 0 
LINE
 8 
0
 62 
 7 
 10 
2.515
 20 
2.167
 11 
2.485
 21 
2.167
 0 
LINE
 8 
0
 62 
 7 
 10 
2.485
 20 
2.167
 11 
2.485
 21 
2.262
 0 
LINE
 8 
0
 62 
 7 
 10 
2.335
 20 
2.262
 11 
2.365
 21 
2.262
 0 
LINE
 8 
0
 62 
 7 
 10 
2.365
 20 
2.262
 11 
2.365
 21 
2.167
 0 
LINE
 8 
0
 62 
 7 
 10 
2.365
 20 
2.167
 11 
2.335
 21 
2.167
 0 
LINE
 8 
0
 62 
 7 
 10 
2.335
 20 
2.167
 11 
2.335
 21 
2.262
 0 
LINE
 8 
0
 62 
 7 
 10 
2.385
 20 
2.262
 11 
2.415
 21 
2.262
 0 
LINE
 8 
0
 62 
 7 
 10 
2.415
 20 
2.262
 11 
2.415
 21 
2.167
 0 
LINE
 8 
0
 62 
 7 
 10 
2.415
 20 
2.167
 11 
2.385
 21 
2.167
 0 
LINE
 8 
0
 62 
 7 
 10 
2.385
 20 
2.167
 11 
2.385
 21 
2.262
 0 
LINE
 8 
0
 62 
 7 
 10 
2.435
 20 
2.262
 11 
2.465
 21 
2.262
 0 
LINE
 8 
0
 62 
 7 
 10 
2.465
 20 
2.262
 11 
2.465
 21 
2.167
 0 
LINE
 8 
0
 62 
 7 
 10 
2.465
 20 
2.167
 11 
2.435
 21 
2.167
 0 
LINE
 8 
0
 62 
 7 
 10 
2.435
 20 
2.167
 11 
2.435
 21 
2.262
 0 
LINE
 8 
0
 62 
 7 
 10 
2.335
 20 
2.422
 11 
2.365
 21 
2.422
 0 
LINE
 8 
0
 62 
 7 
 10 
2.365
 20 
2.422
 11 
2.365
 21 
2.327
 0 
LINE
 8 
0
 62 
 7 
 10 
2.365
 20 
2.327
 11 
2.335
 21 
2.327
 0 
LINE
 8 
0
 62 
 7 
 10 
2.335
 20 
2.327
 11 
2.335
 21 
2.422
 0 
LINE
 8 
0
 62 
 7 
 10 
2.333
 20 
2.325
 11 
2.358
 21 
2.325
 0 
LINE
 8 
0
 62 
 7 
 10 
2.358
 20 
2.325
 11 
2.358
 21 
2.283
 0 
LINE
 8 
0
 62 
 7 
 10 
2.358
 20 
2.283
 11 
2.35
 21 
2.275
 0 
LINE
 8 
0
 62 
 7 
 10 
2.35
 20 
2.275
 11 
2.333
 21 
2.275
 0 
LINE
 8 
0
 62 
 7 
 10 
2.333
 20 
2.275
 11 
2.325
 21 
2.283
 0 
LINE
 8 
0
 62 
 7 
 10 
2.383
 20 
2.317
 11 
2.392
 21 
2.325
 0 
LINE
 8 
0
 62 
 7 
 10 
2.392
 20 
2.325
 11 
2.392
 21 
2.275
 0 
LINE
 8 
0
 62 
 7 
 10 
2.383
 20 
2.275
 11 
2.4
 21 
2.275
 0 
LINE
 8 
0
 62 
 7 
 10 
2.458
 20 
2.292
 11 
2.425
 21 
2.292
 0 
LINE
 8 
0
 62 
 7 
 10 
2.425
 20 
2.292
 11 
2.425
 21 
2.3
 0 
LINE
 8 
0
 62 
 7 
 10 
2.425
 20 
2.3
 11 
2.45
 21 
2.325
 0 
LINE
 8 
0
 62 
 7 
 10 
2.45
 20 
2.325
 11 
2.45
 21 
2.275
 0 
LINE
 8 
0
 62 
 7 
 10 
3.085
 20 
2.422
 11 
3.115
 21 
2.422
 0 
LINE
 8 
0
 62 
 7 
 10 
3.115
 20 
2.422
 11 
3.115
 21 
2.327
 0 
LINE
 8 
0
 62 
 7 
 10 
3.115
 20 
2.327
 11 
3.085
 21 
2.327
 0 
LINE
 8 
0
 62 
 7 
 10 
3.085
 20 
2.327
 11 
3.085
 21 
2.422
 0 
LINE
 8 
0
 62 
 7 
 10 
3.135
 20 
2.422
 11 
3.165
 21 
2.422
 0 
LINE
 8 
0
 62 
 7 
 10 
3.165
 20 
2.422
 11 
3.165
 21 
2.327
 0 
LINE
 8 
0
 62 
 7 
 10 
3.165
 20 
2.327
 11 
3.135
 21 
2.327
 0 
LINE
 8 
0
 62 
 7 
 10 
3.135
 20 
2.327
 11 
3.135
 21 
2.422
 0 
LINE
 8 
0
 62 
 7 
 10 
3.185
 20 
2.422
 11 
3.215
 21 
2.422
 0 
LINE
 8 
0
 62 
 7 
 10 
3.215
 20 
2.422
 11 
3.215
 21 
2.327
 0 
LINE
 8 
0
 62 
 7 
 10 
3.215
 20 
2.327
 11 
3.185
 21 
2.327
 0 
LINE
 8 
0
 62 
 7 
 10 
3.185
 20 
2.327
 11 
3.185
 21 
2.422
 0 
LINE
 8 
0
 62 
 7 
 10 
2.985
 20 
2.422
 11 
3.015
 21 
2.422
 0 
LINE
 8 
0
 62 
 7 
 10 
3.015
 20 
2.422
 11 
3.015
 21 
2.327
 0 
LINE
 8 
0
 62 
 7 
 10 
3.015
 20 
2.327
 11 
2.985
 21 
2.327
 0 
LINE
 8 
0
 62 
 7 
 10 
2.985
 20 
2.327
 11 
2.985
 21 
2.422
 0 
LINE
 8 
0
 62 
 7 
 10 
2.985
 20 
2.262
 11 
3.015
 21 
2.262
 0 
LINE
 8 
0
 62 
 7 
 10 
3.015
 20 
2.262
 11 
3.015
 21 
2.167
 0 
LINE
 8 
0
 62 
 7 
 10 
3.015
 20 
2.167
 11 
2.985
 21 
2.167
 0 
LINE
 8 
0
 62 
 7 
 10 
2.985
 20 
2.167
 11 
2.985
 21 
2.262
 0 
LINE
 8 
0
 62 
 7 
 10 
3.185
 20 
2.262
 11 
3.215
 21 
2.262
 0 
LINE
 8 
0
 62 
 7 
 10 
3.215
 20 
2.262
 11 
3.215
 21 
2.167
 0 
LINE
 8 
0
 62 
 7 
 10 
3.215
 20 
2.167
 11 
3.185
 21 
2.167
 0 
LINE
 8 
0
 62 
 7 
 10 
3.185
 20 
2.167
 11 
3.185
 21 
2.262
 0 
LINE
 8 
0
 62 
 7 
 10 
3.035
 20 
2.262
 11 
3.065
 21 
2.262
 0 
LINE
 8 
0
 62 
 7 
 10 
3.065
 20 
2.262
 11 
3.065
 21 
2.167
 0 
LINE
 8 
0
 62 
 7 
 10 
3.065
 20 
2.167
 11 
3.035
 21 
2.167
 0 
LINE
 8 
0
 62 
 7 
 10 
3.035
 20 
2.167
 11 
3.035
 21 
2.262
 0 
LINE
 8 
0
 62 
 7 
 10 
3.085
 20 
2.262
 11 
3.115
 21 
2.262
 0 
LINE
 8 
0
 62 
 7 
 10 
3.115
 20 
2.262
 11 
3.115
 21 
2.167
 0 
LINE
 8 
0
 62 
 7 
 10 
3.115
 20 
2.167
 11 
3.085
 21 
2.167
 0 
LINE
 8 
0
 62 
 7 
 10 
3.085
 20 
2.167
 11 
3.085
 21 
2.262
 0 
LINE
 8 
0
 62 
 7 
 10 
3.135
 20 
2.262
 11 
3.165
 21 
2.262
 0 
LINE
 8 
0
 62 
 7 
 10 
3.165
 20 
2.262
 11 
3.165
 21 
2.167
 0 
LINE
 8 
0
 62 
 7 
 10 
3.165
 20 
2.167
 11 
3.135
 21 
2.167
 0 
LINE
 8 
0
 62 
 7 
 10 
3.135
 20 
2.167
 11 
3.135
 21 
2.262
 0 
LINE
 8 
0
 62 
 7 
 10 
3.035
 20 
2.422
 11 
3.065
 21 
2.422
 0 
LINE
 8 
0
 62 
 7 
 10 
3.065
 20 
2.422
 11 
3.065
 21 
2.327
 0 
LINE
 8 
0
 62 
 7 
 10 
3.065
 20 
2.327
 11 
3.035
 21 
2.327
 0 
LINE
 8 
0
 62 
 7 
 10 
3.035
 20 
2.327
 11 
3.035
 21 
2.422
 0 
LINE
 8 
0
 62 
 7 
 10 
1.685
 20 
1.322
 11 
1.715
 21 
1.322
 0 
LINE
 8 
0
 62 
 7 
 10 
1.715
 20 
1.322
 11 
1.715
 21 
1.227
 0 
LINE
 8 
0
 62 
 7 
 10 
1.715
 20 
1.227
 11 
1.685
 21 
1.227
 0 
LINE
 8 
0
 62 
 7 
 10 
1.685
 20 
1.227
 11 
1.685
 21 
1.322
 0 
LINE
 8 
0
 62 
 7 
 10 
1.735
 20 
1.322
 11 
1.765
 21 
1.322
 0 
LINE
 8 
0
 62 
 7 
 10 
1.765
 20 
1.322
 11 
1.765
 21 
1.227
 0 
LINE
 8 
0
 62 
 7 
 10 
1.765
 20 
1.227
 11 
1.735
 21 
1.227
 0 
LINE
 8 
0
 62 
 7 
 10 
1.735
 20 
1.227
 11 
1.735
 21 
1.322
 0 
LINE
 8 
0
 62 
 7 
 10 
1.785
 20 
1.322
 11 
1.815
 21 
1.322
 0 
LINE
 8 
0
 62 
 7 
 10 
1.815
 20 
1.322
 11 
1.815
 21 
1.227
 0 
LINE
 8 
0
 62 
 7 
 10 
1.815
 20 
1.227
 11 
1.785
 21 
1.227
 0 
LINE
 8 
0
 62 
 7 
 10 
1.785
 20 
1.227
 11 
1.785
 21 
1.322
 0 
LINE
 8 
0
 62 
 7 
 10 
1.585
 20 
1.322
 11 
1.615
 21 
1.322
 0 
LINE
 8 
0
 62 
 7 
 10 
1.615
 20 
1.322
 11 
1.615
 21 
1.227
 0 
LINE
 8 
0
 62 
 7 
 10 
1.615
 20 
1.227
 11 
1.585
 21 
1.227
 0 
LINE
 8 
0
 62 
 7 
 10 
1.585
 20 
1.227
 11 
1.585
 21 
1.322
 0 
LINE
 8 
0
 62 
 7 
 10 
1.585
 20 
1.162
 11 
1.615
 21 
1.162
 0 
LINE
 8 
0
 62 
 7 
 10 
1.615
 20 
1.162
 11 
1.615
 21 
1.067
 0 
LINE
 8 
0
 62 
 7 
 10 
1.615
 20 
1.067
 11 
1.585
 21 
1.067
 0 
LINE
 8 
0
 62 
 7 
 10 
1.585
 20 
1.067
 11 
1.585
 21 
1.162
 0 
LINE
 8 
0
 62 
 7 
 10 
1.785
 20 
1.162
 11 
1.815
 21 
1.162
 0 
LINE
 8 
0
 62 
 7 
 10 
1.815
 20 
1.162
 11 
1.815
 21 
1.067
 0 
LINE
 8 
0
 62 
 7 
 10 
1.815
 20 
1.067
 11 
1.785
 21 
1.067
 0 
LINE
 8 
0
 62 
 7 
 10 
1.785
 20 
1.067
 11 
1.785
 21 
1.162
 0 
LINE
 8 
0
 62 
 7 
 10 
1.635
 20 
1.162
 11 
1.665
 21 
1.162
 0 
LINE
 8 
0
 62 
 7 
 10 
1.665
 20 
1.162
 11 
1.665
 21 
1.067
 0 
LINE
 8 
0
 62 
 7 
 10 
1.665
 20 
1.067
 11 
1.635
 21 
1.067
 0 
LINE
 8 
0
 62 
 7 
 10 
1.635
 20 
1.067
 11 
1.635
 21 
1.162
 0 
LINE
 8 
0
 62 
 7 
 10 
1.685
 20 
1.162
 11 
1.715
 21 
1.162
 0 
LINE
 8 
0
 62 
 7 
 10 
1.715
 20 
1.162
 11 
1.715
 21 
1.067
 0 
LINE
 8 
0
 62 
 7 
 10 
1.715
 20 
1.067
 11 
1.685
 21 
1.067
 0 
LINE
 8 
0
 62 
 7 
 10 
1.685
 20 
1.067
 11 
1.685
 21 
1.162
 0 
LINE
 8 
0
 62 
 7 
 10 
1.735
 20 
1.162
 11 
1.765
 21 
1.162
 0 
LINE
 8 
0
 62 
 7 
 10 
1.765
 20 
1.162
 11 
1.765
 21 
1.067
 0 
LINE
 8 
0
 62 
 7 
 10 
1.765
 20 
1.067
 11 
1.735
 21 
1.067
 0 
LINE
 8 
0
 62 
 7 
 10 
1.735
 20 
1.067
 11 
1.735
 21 
1.162
 0 
LINE
 8 
0
 62 
 7 
 10 
1.635
 20 
1.322
 11 
1.665
 21 
1.322
 0 
LINE
 8 
0
 62 
 7 
 10 
1.665
 20 
1.322
 11 
1.665
 21 
1.227
 0 
LINE
 8 
0
 62 
 7 
 10 
1.665
 20 
1.227
 11 
1.635
 21 
1.227
 0 
LINE
 8 
0
 62 
 7 
 10 
1.635
 20 
1.227
 11 
1.635
 21 
1.322
 0 
LINE
 8 
0
 62 
 7 
 10 
1.633
 20 
1.225
 11 
1.658
 21 
1.225
 0 
LINE
 8 
0
 62 
 7 
 10 
1.658
 20 
1.225
 11 
1.658
 21 
1.183
 0 
LINE
 8 
0
 62 
 7 
 10 
1.658
 20 
1.183
 11 
1.65
 21 
1.175
 0 
LINE
 8 
0
 62 
 7 
 10 
1.65
 20 
1.175
 11 
1.633
 21 
1.175
 0 
LINE
 8 
0
 62 
 7 
 10 
1.633
 20 
1.175
 11 
1.625
 21 
1.183
 0 
LINE
 8 
0
 62 
 7 
 10 
1.675
 20 
1.217
 11 
1.683
 21 
1.225
 0 
LINE
 8 
0
 62 
 7 
 10 
1.683
 20 
1.225
 11 
1.7
 21 
1.225
 0 
LINE
 8 
0
 62 
 7 
 10 
1.7
 20 
1.225
 11 
1.708
 21 
1.217
 0 
LINE
 8 
0
 62 
 7 
 10 
1.708
 20 
1.217
 11 
1.708
 21 
1.208
 0 
LINE
 8 
0
 62 
 7 
 10 
1.708
 20 
1.208
 11 
1.7
 21 
1.2
 0 
LINE
 8 
0
 62 
 7 
 10 
1.7
 20 
1.2
 11 
1.683
 21 
1.2
 0 
LINE
 8 
0
 62 
 7 
 10 
1.683
 20 
1.2
 11 
1.675
 21 
1.192
 0 
LINE
 8 
0
 62 
 7 
 10 
1.675
 20 
1.192
 11 
1.675
 21 
1.175
 0 
LINE
 8 
0
 62 
 7 
 10 
1.675
 20 
1.175
 11 
1.708
 21 
1.175
 0 
LINE
 8 
0
 62 
 7 
 10 
1.733
 20 
1.217
 11 
1.742
 21 
1.225
 0 
LINE
 8 
0
 62 
 7 
 10 
1.742
 20 
1.225
 11 
1.742
 21 
1.175
 0 
LINE
 8 
0
 62 
 7 
 10 
1.733
 20 
1.175
 11 
1.75
 21 
1.175
 0 
LINE
 8 
0
 62 
 7 
 10 
2.385
 20 
1.322
 11 
2.415
 21 
1.322
 0 
LINE
 8 
0
 62 
 7 
 10 
2.415
 20 
1.322
 11 
2.415
 21 
1.227
 0 
LINE
 8 
0
 62 
 7 
 10 
2.415
 20 
1.227
 11 
2.385
 21 
1.227
 0 
LINE
 8 
0
 62 
 7 
 10 
2.385
 20 
1.227
 11 
2.385
 21 
1.322
 0 
LINE
 8 
0
 62 
 7 
 10 
2.435
 20 
1.322
 11 
2.465
 21 
1.322
 0 
LINE
 8 
0
 62 
 7 
 10 
2.465
 20 
1.322
 11 
2.465
 21 
1.227
 0 
LINE
 8 
0
 62 
 7 
 10 
2.465
 20 
1.227
 11 
2.435
 21 
1.227
 0 
LINE
 8 
0
 62 
 7 
 10 
2.435
 20 
1.227
 11 
2.435
 21 
1.322
 0 
LINE
 8 
0
 62 
 7 
 10 
2.485
 20 
1.322
 11 
2.515
 21 
1.322
 0 
LINE
 8 
0
 62 
 7 
 10 
2.515
 20 
1.322
 11 
2.515
 21 
1.227
 0 
LINE
 8 
0
 62 
 7 
 10 
2.515
 20 
1.227
 11 
2.485
 21 
1.227
 0 
LINE
 8 
0
 62 
 7 
 10 
2.485
 20 
1.227
 11 
2.485
 21 
1.322
 0 
LINE
 8 
0
 62 
 7 
 10 
2.285
 20 
1.322
 11 
2.315
 21 
1.322
 0 
LINE
 8 
0
 62 
 7 
 10 
2.315
 20 
1.322
 11 
2.315
 21 
1.227
 0 
LINE
 8 
0
 62 
 7 
 10 
2.315
 20 
1.227
 11 
2.285
 21 
1.227
 0 
LINE
 8 
0
 62 
 7 
 10 
2.285
 20 
1.227
 11 
2.285
 21 
1.322
 0 
LINE
 8 
0
 62 
 7 
 10 
2.285
 20 
1.162
 11 
2.315
 21 
1.162
 0 
LINE
 8 
0
 62 
 7 
 10 
2.315
 20 
1.162
 11 
2.315
 21 
1.067
 0 
LINE
 8 
0
 62 
 7 
 10 
2.315
 20 
1.067
 11 
2.285
 21 
1.067
 0 
LINE
 8 
0
 62 
 7 
 10 
2.285
 20 
1.067
 11 
2.285
 21 
1.162
 0 
LINE
 8 
0
 62 
 7 
 10 
2.485
 20 
1.162
 11 
2.515
 21 
1.162
 0 
LINE
 8 
0
 62 
 7 
 10 
2.515
 20 
1.162
 11 
2.515
 21 
1.067
 0 
LINE
 8 
0
 62 
 7 
 10 
2.515
 20 
1.067
 11 
2.485
 21 
1.067
 0 
LINE
 8 
0
 62 
 7 
 10 
2.485
 20 
1.067
 11 
2.485
 21 
1.162
 0 
LINE
 8 
0
 62 
 7 
 10 
2.335
 20 
1.162
 11 
2.365
 21 
1.162
 0 
LINE
 8 
0
 62 
 7 
 10 
2.365
 20 
1.162
 11 
2.365
 21 
1.067
 0 
LINE
 8 
0
 62 
 7 
 10 
2.365
 20 
1.067
 11 
2.335
 21 
1.067
 0 
LINE
 8 
0
 62 
 7 
 10 
2.335
 20 
1.067
 11 
2.335
 21 
1.162
 0 
LINE
 8 
0
 62 
 7 
 10 
2.385
 20 
1.162
 11 
2.415
 21 
1.162
 0 
LINE
 8 
0
 62 
 7 
 10 
2.415
 20 
1.162
 11 
2.415
 21 
1.067
 0 
LINE
 8 
0
 62 
 7 
 10 
2.415
 20 
1.067
 11 
2.385
 21 
1.067
 0 
LINE
 8 
0
 62 
 7 
 10 
2.385
 20 
1.067
 11 
2.385
 21 
1.162
 0 
LINE
 8 
0
 62 
 7 
 10 
2.435
 20 
1.162
 11 
2.465
 21 
1.162
 0 
LINE
 8 
0
 62 
 7 
 10 
2.465
 20 
1.162
 11 
2.465
 21 
1.067
 0 
LINE
 8 
0
 62 
 7 
 10 
2.465
 20 
1.067
 11 
2.435
 21 
1.067
 0 
LINE
 8 
0
 62 
 7 
 10 
2.435
 20 
1.067
 11 
2.435
 21 
1.162
 0 
LINE
 8 
0
 62 
 7 
 10 
2.335
 20 
1.322
 11 
2.365
 21 
1.322
 0 
LINE
 8 
0
 62 
 7 
 10 
2.365
 20 
1.322
 11 
2.365
 21 
1.227
 0 
LINE
 8 
0
 62 
 7 
 10 
2.365
 20 
1.227
 11 
2.335
 21 
1.227
 0 
LINE
 8 
0
 62 
 7 
 10 
2.335
 20 
1.227
 11 
2.335
 21 
1.322
 0 
LINE
 8 
0
 62 
 7 
 10 
2.333
 20 
1.225
 11 
2.358
 21 
1.225
 0 
LINE
 8 
0
 62 
 7 
 10 
2.358
 20 
1.225
 11 
2.358
 21 
1.183
 0 
LINE
 8 
0
 62 
 7 
 10 
2.358
 20 
1.183
 11 
2.35
 21 
1.175
 0 
LINE
 8 
0
 62 
 7 
 10 
2.35
 20 
1.175
 11 
2.333
 21 
1.175
 0 
LINE
 8 
0
 62 
 7 
 10 
2.333
 20 
1.175
 11 
2.325
 21 
1.183
 0 
LINE
 8 
0
 62 
 7 
 10 
2.375
 20 
1.217
 11 
2.383
 21 
1.225
 0 
LINE
 8 
0
 62 
 7 
 10 
2.383
 20 
1.225
 11 
2.4
 21 
1.225
 0 
LINE
 8 
0
 62 
 7 
 10 
2.4
 20 
1.225
 11 
2.408
 21 
1.217
 0 
LINE
 8 
0
 62 
 7 
 10 
2.408
 20 
1.217
 11 
2.408
 21 
1.208
 0 
LINE
 8 
0
 62 
 7 
 10 
2.408
 20 
1.208
 11 
2.4
 21 
1.2
 0 
LINE
 8 
0
 62 
 7 
 10 
2.4
 20 
1.2
 11 
2.383
 21 
1.2
 0 
LINE
 8 
0
 62 
 7 
 10 
2.383
 20 
1.2
 11 
2.375
 21 
1.192
 0 
LINE
 8 
0
 62 
 7 
 10 
2.375
 20 
1.192
 11 
2.375
 21 
1.175
 0 
LINE
 8 
0
 62 
 7 
 10 
2.375
 20 
1.175
 11 
2.408
 21 
1.175
 0 
LINE
 8 
0
 62 
 7 
 10 
2.425
 20 
1.217
 11 
2.433
 21 
1.225
 0 
LINE
 8 
0
 62 
 7 
 10 
2.433
 20 
1.225
 11 
2.45
 21 
1.225
 0 
LINE
 8 
0
 62 
 7 
 10 
2.45
 20 
1.225
 11 
2.458
 21 
1.217
 0 
LINE
 8 
0
 62 
 7 
 10 
2.458
 20 
1.217
 11 
2.458
 21 
1.208
 0 
LINE
 8 
0
 62 
 7 
 10 
2.458
 20 
1.208
 11 
2.45
 21 
1.2
 0 
LINE
 8 
0
 62 
 7 
 10 
2.45
 20 
1.2
 11 
2.433
 21 
1.2
 0 
LINE
 8 
0
 62 
 7 
 10 
2.433
 20 
1.2
 11 
2.425
 21 
1.192
 0 
LINE
 8 
0
 62 
 7 
 10 
2.425
 20 
1.192
 11 
2.425
 21 
1.175
 0 
LINE
 8 
0
 62 
 7 
 10 
2.425
 20 
1.175
 11 
2.458
 21 
1.175
 0 
LINE
 8 
0
 62 
 7 
 10 
3.085
 20 
1.322
 11 
3.115
 21 
1.322
 0 
LINE
 8 
0
 62 
 7 
 10 
3.115
 20 
1.322
 11 
3.115
 21 
1.227
 0 
LINE
 8 
0
 62 
 7 
 10 
3.115
 20 
1.227
 11 
3.085
 21 
1.227
 0 
LINE
 8 
0
 62 
 7 
 10 
3.085
 20 
1.227
 11 
3.085
 21 
1.322
 0 
LINE
 8 
0
 62 
 7 
 10 
3.135
 20 
1.322
 11 
3.165
 21 
1.322
 0 
LINE
 8 
0
 62 
 7 
 10 
3.165
 20 
1.322
 11 
3.165
 21 
1.227
 0 
LINE
 8 
0
 62 
 7 
 10 
3.165
 20 
1.227
 11 
3.135
 21 
1.227
 0 
LINE
 8 
0
 62 
 7 
 10 
3.135
 20 
1.227
 11 
3.135
 21 
1.322
 0 
LINE
 8 
0
 62 
 7 
 10 
3.185
 20 
1.322
 11 
3.215
 21 
1.322
 0 
LINE
 8 
0
 62 
 7 
 10 
3.215
 20 
1.322
 11 
3.215
 21 
1.227
 0 
LINE
 8 
0
 62 
 7 
 10 
3.215
 20 
1.227
 11 
3.185
 21 
1.227
 0 
LINE
 8 
0
 62 
 7 
 10 
3.185
 20 
1.227
 11 
3.185
 21 
1.322
 0 
LINE
 8 
0
 62 
 7 
 10 
2.985
 20 
1.322
 11 
3.015
 21 
1.322
 0 
LINE
 8 
0
 62 
 7 
 10 
3.015
 20 
1.322
 11 
3.015
 21 
1.227
 0 
LINE
 8 
0
 62 
 7 
 10 
3.015
 20 
1.227
 11 
2.985
 21 
1.227
 0 
LINE
 8 
0
 62 
 7 
 10 
2.985
 20 
1.227
 11 
2.985
 21 
1.322
 0 
LINE
 8 
0
 62 
 7 
 10 
2.985
 20 
1.162
 11 
3.015
 21 
1.162
 0 
LINE
 8 
0
 62 
 7 
 10 
3.015
 20 
1.162
 11 
3.015
 21 
1.067
 0 
LINE
 8 
0
 62 
 7 
 10 
3.015
 20 
1.067
 11 
2.985
 21 
1.067
 0 
LINE
 8 
0
 62 
 7 
 10 
2.985
 20 
1.067
 11 
2.985
 21 
1.162
 0 
LINE
 8 
0
 62 
 7 
 10 
3.185
 20 
1.162
 11 
3.215
 21 
1.162
 0 
LINE
 8 
0
 62 
 7 
 10 
3.215
 20 
1.162
 11 
3.215
 21 
1.067
 0 
LINE
 8 
0
 62 
 7 
 10 
3.215
 20 
1.067
 11 
3.185
 21 
1.067
 0 
LINE
 8 
0
 62 
 7 
 10 
3.185
 20 
1.067
 11 
3.185
 21 
1.162
 0 
LINE
 8 
0
 62 
 7 
 10 
3.035
 20 
1.162
 11 
3.065
 21 
1.162
 0 
LINE
 8 
0
 62 
 7 
 10 
3.065
 20 
1.162
 11 
3.065
 21 
1.067
 0 
LINE
 8 
0
 62 
 7 
 10 
3.065
 20 
1.067
 11 
3.035
 21 
1.067
 0 
LINE
 8 
0
 62 
 7 
 10 
3.035
 20 
1.067
 11 
3.035
 21 
1.162
 0 
LINE
 8 
0
 62 
 7 
 10 
3.085
 20 
1.162
 11 
3.115
 21 
1.162
 0 
LINE
 8 
0
 62 
 7 
 10 
3.115
 20 
1.162
 11 
3.115
 21 
1.067
 0 
LINE
 8 
0
 62 
 7 
 10 
3.115
 20 
1.067
 11 
3.085
 21 
1.067
 0 
LINE
 8 
0
 62 
 7 
 10 
3.085
 20 
1.067
 11 
3.085
 21 
1.162
 0 
LINE
 8 
0
 62 
 7 
 10 
3.135
 20 
1.162
 11 
3.165
 21 
1.162
 0 
LINE
 8 
0
 62 
 7 
 10 
3.165
 20 
1.162
 11 
3.165
 21 
1.067
 0 
LINE
 8 
0
 62 
 7 
 10 
3.165
 20 
1.067
 11 
3.135
 21 
1.067
 0 
LINE
 8 
0
 62 
 7 
 10 
3.135
 20 
1.067
 11 
3.135
 21 
1.162
 0 
LINE
 8 
0
 62 
 7 
 10 
3.035
 20 
1.322
 11 
3.065
 21 
1.322
 0 
LINE
 8 
0
 62 
 7 
 10 
3.065
 20 
1.322
 11 
3.065
 21 
1.227
 0 
LINE
 8 
0
 62 
 7 
 10 
3.065
 20 
1.227
 11 
3.035
 21 
1.227
 0 
LINE
 8 
0
 62 
 7 
 10 
3.035
 20 
1.227
 11 
3.035
 21 
1.322
 0 
LINE
 8 
0
 62 
 7 
 10 
1.685
 20 
2.922
 11 
1.715
 21 
2.922
 0 
LINE
 8 
0
 62 
 7 
 10 
1.715
 20 
2.922
 11 
1.715
 21 
2.827
 0 
LINE
 8 
0
 62 
 7 
 10 
1.715
 20 
2.827
 11 
1.685
 21 
2.827
 0 
LINE
 8 
0
 62 
 7 
 10 
1.685
 20 
2.827
 11 
1.685
 21 
2.922
 0 
LINE
 8 
0
 62 
 7 
 10 
1.735
 20 
2.922
 11 
1.765
 21 
2.922
 0 
LINE
 8 
0
 62 
 7 
 10 
1.765
 20 
2.922
 11 
1.765
 21 
2.827
 0 
LINE
 8 
0
 62 
 7 
 10 
1.765
 20 
2.827
 11 
1.735
 21 
2.827
 0 
LINE
 8 
0
 62 
 7 
 10 
1.735
 20 
2.827
 11 
1.735
 21 
2.922
 0 
LINE
 8 
0
 62 
 7 
 10 
1.785
 20 
2.922
 11 
1.815
 21 
2.922
 0 
LINE
 8 
0
 62 
 7 
 10 
1.815
 20 
2.922
 11 
1.815
 21 
2.827
 0 
LINE
 8 
0
 62 
 7 
 10 
1.815
 20 
2.827
 11 
1.785
 21 
2.827
 0 
LINE
 8 
0
 62 
 7 
 10 
1.785
 20 
2.827
 11 
1.785
 21 
2.922
 0 
LINE
 8 
0
 62 
 7 
 10 
1.585
 20 
2.922
 11 
1.615
 21 
2.922
 0 
LINE
 8 
0
 62 
 7 
 10 
1.615
 20 
2.922
 11 
1.615
 21 
2.827
 0 
LINE
 8 
0
 62 
 7 
 10 
1.615
 20 
2.827
 11 
1.585
 21 
2.827
 0 
LINE
 8 
0
 62 
 7 
 10 
1.585
 20 
2.827
 11 
1.585
 21 
2.922
 0 
LINE
 8 
0
 62 
 7 
 10 
1.585
 20 
2.762
 11 
1.615
 21 
2.762
 0 
LINE
 8 
0
 62 
 7 
 10 
1.615
 20 
2.762
 11 
1.615
 21 
2.667
 0 
LINE
 8 
0
 62 
 7 
 10 
1.615
 20 
2.667
 11 
1.585
 21 
2.667
 0 
LINE
 8 
0
 62 
 7 
 10 
1.585
 20 
2.667
 11 
1.585
 21 
2.762
 0 
LINE
 8 
0
 62 
 7 
 10 
1.785
 20 
2.762
 11 
1.815
 21 
2.762
 0 
LINE
 8 
0
 62 
 7 
 10 
1.815
 20 
2.762
 11 
1.815
 21 
2.667
 0 
LINE
 8 
0
 62 
 7 
 10 
1.815
 20 
2.667
 11 
1.785
 21 
2.667
 0 
LINE
 8 
0
 62 
 7 
 10 
1.785
 20 
2.667
 11 
1.785
 21 
2.762
 0 
LINE
 8 
0
 62 
 7 
 10 
1.635
 20 
2.762
 11 
1.665
 21 
2.762
 0 
LINE
 8 
0
 62 
 7 
 10 
1.665
 20 
2.762
 11 
1.665
 21 
2.667
 0 
LINE
 8 
0
 62 
 7 
 10 
1.665
 20 
2.667
 11 
1.635
 21 
2.667
 0 
LINE
 8 
0
 62 
 7 
 10 
1.635
 20 
2.667
 11 
1.635
 21 
2.762
 0 
LINE
 8 
0
 62 
 7 
 10 
1.685
 20 
2.762
 11 
1.715
 21 
2.762
 0 
LINE
 8 
0
 62 
 7 
 10 
1.715
 20 
2.762
 11 
1.715
 21 
2.667
 0 
LINE
 8 
0
 62 
 7 
 10 
1.715
 20 
2.667
 11 
1.685
 21 
2.667
 0 
LINE
 8 
0
 62 
 7 
 10 
1.685
 20 
2.667
 11 
1.685
 21 
2.762
 0 
LINE
 8 
0
 62 
 7 
 10 
1.735
 20 
2.762
 11 
1.765
 21 
2.762
 0 
LINE
 8 
0
 62 
 7 
 10 
1.765
 20 
2.762
 11 
1.765
 21 
2.667
 0 
LINE
 8 
0
 62 
 7 
 10 
1.765
 20 
2.667
 11 
1.735
 21 
2.667
 0 
LINE
 8 
0
 62 
 7 
 10 
1.735
 20 
2.667
 11 
1.735
 21 
2.762
 0 
LINE
 8 
0
 62 
 7 
 10 
1.635
 20 
2.922
 11 
1.665
 21 
2.922
 0 
LINE
 8 
0
 62 
 7 
 10 
1.665
 20 
2.922
 11 
1.665
 21 
2.827
 0 
LINE
 8 
0
 62 
 7 
 10 
1.665
 20 
2.827
 11 
1.635
 21 
2.827
 0 
LINE
 8 
0
 62 
 7 
 10 
1.635
 20 
2.827
 11 
1.635
 21 
2.922
 0 
LINE
 8 
0
 62 
 7 
 10 
1.658
 20 
2.825
 11 
1.683
 21 
2.825
 0 
LINE
 8 
0
 62 
 7 
 10 
1.683
 20 
2.825
 11 
1.683
 21 
2.783
 0 
LINE
 8 
0
 62 
 7 
 10 
1.683
 20 
2.783
 11 
1.675
 21 
2.775
 0 
LINE
 8 
0
 62 
 7 
 10 
1.675
 20 
2.775
 11 
1.658
 21 
2.775
 0 
LINE
 8 
0
 62 
 7 
 10 
1.658
 20 
2.775
 11 
1.65
 21 
2.783
 0 
LINE
 8 
0
 62 
 7 
 10 
1.733
 20 
2.808
 11 
1.725
 21 
2.8
 0 
LINE
 8 
0
 62 
 7 
 10 
1.725
 20 
2.8
 11 
1.708
 21 
2.8
 0 
LINE
 8 
0
 62 
 7 
 10 
1.708
 20 
2.8
 11 
1.7
 21 
2.808
 0 
LINE
 8 
0
 62 
 7 
 10 
1.7
 20 
2.808
 11 
1.7
 21 
2.817
 0 
LINE
 8 
0
 62 
 7 
 10 
1.7
 20 
2.817
 11 
1.708
 21 
2.825
 0 
LINE
 8 
0
 62 
 7 
 10 
1.708
 20 
2.825
 11 
1.725
 21 
2.825
 0 
LINE
 8 
0
 62 
 7 
 10 
1.725
 20 
2.825
 11 
1.733
 21 
2.817
 0 
LINE
 8 
0
 62 
 7 
 10 
1.733
 20 
2.817
 11 
1.733
 21 
2.792
 0 
LINE
 8 
0
 62 
 7 
 10 
1.733
 20 
2.792
 11 
1.717
 21 
2.775
 0 
LINE
 8 
0
 62 
 7 
 10 
1.717
 20 
2.775
 11 
1.708
 21 
2.775
 0 
LINE
 8 
0
 62 
 7 
 10 
2.385
 20 
2.922
 11 
2.415
 21 
2.922
 0 
LINE
 8 
0
 62 
 7 
 10 
2.415
 20 
2.922
 11 
2.415
 21 
2.827
 0 
LINE
 8 
0
 62 
 7 
 10 
2.415
 20 
2.827
 11 
2.385
 21 
2.827
 0 
LINE
 8 
0
 62 
 7 
 10 
2.385
 20 
2.827
 11 
2.385
 21 
2.922
 0 
LINE
 8 
0
 62 
 7 
 10 
2.435
 20 
2.922
 11 
2.465
 21 
2.922
 0 
LINE
 8 
0
 62 
 7 
 10 
2.465
 20 
2.922
 11 
2.465
 21 
2.827
 0 
LINE
 8 
0
 62 
 7 
 10 
2.465
 20 
2.827
 11 
2.435
 21 
2.827
 0 
LINE
 8 
0
 62 
 7 
 10 
2.435
 20 
2.827
 11 
2.435
 21 
2.922
 0 
LINE
 8 
0
 62 
 7 
 10 
2.485
 20 
2.922
 11 
2.515
 21 
2.922
 0 
LINE
 8 
0
 62 
 7 
 10 
2.515
 20 
2.922
 11 
2.515
 21 
2.827
 0 
LINE
 8 
0
 62 
 7 
 10 
2.515
 20 
2.827
 11 
2.485
 21 
2.827
 0 
LINE
 8 
0
 62 
 7 
 10 
2.485
 20 
2.827
 11 
2.485
 21 
2.922
 0 
LINE
 8 
0
 62 
 7 
 10 
2.285
 20 
2.922
 11 
2.315
 21 
2.922
 0 
LINE
 8 
0
 62 
 7 
 10 
2.315
 20 
2.922
 11 
2.315
 21 
2.827
 0 
LINE
 8 
0
 62 
 7 
 10 
2.315
 20 
2.827
 11 
2.285
 21 
2.827
 0 
LINE
 8 
0
 62 
 7 
 10 
2.285
 20 
2.827
 11 
2.285
 21 
2.922
 0 
LINE
 8 
0
 62 
 7 
 10 
2.285
 20 
2.762
 11 
2.315
 21 
2.762
 0 
LINE
 8 
0
 62 
 7 
 10 
2.315
 20 
2.762
 11 
2.315
 21 
2.667
 0 
LINE
 8 
0
 62 
 7 
 10 
2.315
 20 
2.667
 11 
2.285
 21 
2.667
 0 
LINE
 8 
0
 62 
 7 
 10 
2.285
 20 
2.667
 11 
2.285
 21 
2.762
 0 
LINE
 8 
0
 62 
 7 
 10 
3.033
 20 
2.325
 11 
3.058
 21 
2.325
 0 
LINE
 8 
0
 62 
 7 
 10 
3.058
 20 
2.325
 11 
3.058
 21 
2.283
 0 
LINE
 8 
0
 62 
 7 
 10 
3.058
 20 
2.283
 11 
3.05
 21 
2.275
 0 
LINE
 8 
0
 62 
 7 
 10 
3.05
 20 
2.275
 11 
3.033
 21 
2.275
 0 
LINE
 8 
0
 62 
 7 
 10 
3.033
 20 
2.275
 11 
3.025
 21 
2.283
 0 
LINE
 8 
0
 62 
 7 
 10 
3.083
 20 
2.317
 11 
3.092
 21 
2.325
 0 
LINE
 8 
0
 62 
 7 
 10 
3.092
 20 
2.325
 11 
3.092
 21 
2.275
 0 
LINE
 8 
0
 62 
 7 
 10 
3.083
 20 
2.275
 11 
3.1
 21 
2.275
 0 
LINE
 8 
0
 62 
 7 
 10 
3.158
 20 
2.325
 11 
3.125
 21 
2.325
 0 
LINE
 8 
0
 62 
 7 
 10 
3.125
 20 
2.325
 11 
3.125
 21 
2.308
 0 
LINE
 8 
0
 62 
 7 
 10 
3.125
 20 
2.308
 11 
3.15
 21 
2.308
 0 
LINE
 8 
0
 62 
 7 
 10 
3.15
 20 
2.308
 11 
3.158
 21 
2.3
 0 
LINE
 8 
0
 62 
 7 
 10 
3.158
 20 
2.3
 11 
3.158
 21 
2.283
 0 
LINE
 8 
0
 62 
 7 
 10 
3.158
 20 
2.283
 11 
3.15
 21 
2.275
 0 
LINE
 8 
0
 62 
 7 
 10 
3.15
 20 
2.275
 11 
3.133
 21 
2.275
 0 
LINE
 8 
0
 62 
 7 
 10 
3.133
 20 
2.275
 11 
3.125
 21 
2.283
 0 
LINE
 8 
0
 62 
 7 
 10 
3.785
 20 
2.422
 11 
3.815
 21 
2.422
 0 
LINE
 8 
0
 62 
 7 
 10 
3.815
 20 
2.422
 11 
3.815
 21 
2.327
 0 
LINE
 8 
0
 62 
 7 
 10 
3.815
 20 
2.327
 11 
3.785
 21 
2.327
 0 
LINE
 8 
0
 62 
 7 
 10 
3.785
 20 
2.327
 11 
3.785
 21 
2.422
 0 
LINE
 8 
0
 62 
 7 
 10 
3.835
 20 
2.422
 11 
3.865
 21 
2.422
 0 
LINE
 8 
0
 62 
 7 
 10 
3.865
 20 
2.422
 11 
3.865
 21 
2.327
 0 
LINE
 8 
0
 62 
 7 
 10 
3.865
 20 
2.327
 11 
3.835
 21 
2.327
 0 
LINE
 8 
0
 62 
 7 
 10 
3.835
 20 
2.327
 11 
3.835
 21 
2.422
 0 
LINE
 8 
0
 62 
 7 
 10 
3.885
 20 
2.422
 11 
3.915
 21 
2.422
 0 
LINE
 8 
0
 62 
 7 
 10 
3.915
 20 
2.422
 11 
3.915
 21 
2.327
 0 
LINE
 8 
0
 62 
 7 
 10 
3.915
 20 
2.327
 11 
3.885
 21 
2.327
 0 
LINE
 8 
0
 62 
 7 
 10 
3.885
 20 
2.327
 11 
3.885
 21 
2.422
 0 
LINE
 8 
0
 62 
 7 
 10 
3.685
 20 
2.422
 11 
3.715
 21 
2.422
 0 
LINE
 8 
0
 62 
 7 
 10 
3.715
 20 
2.422
 11 
3.715
 21 
2.327
 0 
LINE
 8 
0
 62 
 7 
 10 
3.715
 20 
2.327
 11 
3.685
 21 
2.327
 0 
LINE
 8 
0
 62 
 7 
 10 
3.685
 20 
2.327
 11 
3.685
 21 
2.422
 0 
LINE
 8 
0
 62 
 7 
 10 
3.685
 20 
2.262
 11 
3.715
 21 
2.262
 0 
LINE
 8 
0
 62 
 7 
 10 
3.715
 20 
2.262
 11 
3.715
 21 
2.167
 0 
LINE
 8 
0
 62 
 7 
 10 
3.715
 20 
2.167
 11 
3.685
 21 
2.167
 0 
LINE
 8 
0
 62 
 7 
 10 
3.685
 20 
2.167
 11 
3.685
 21 
2.262
 0 
LINE
 8 
0
 62 
 7 
 10 
3.885
 20 
2.262
 11 
3.915
 21 
2.262
 0 
LINE
 8 
0
 62 
 7 
 10 
3.915
 20 
2.262
 11 
3.915
 21 
2.167
 0 
LINE
 8 
0
 62 
 7 
 10 
3.915
 20 
2.167
 11 
3.885
 21 
2.167
 0 
LINE
 8 
0
 62 
 7 
 10 
3.885
 20 
2.167
 11 
3.885
 21 
2.262
 0 
LINE
 8 
0
 62 
 7 
 10 
3.735
 20 
2.262
 11 
3.765
 21 
2.262
 0 
LINE
 8 
0
 62 
 7 
 10 
3.765
 20 
2.262
 11 
3.765
 21 
2.167
 0 
LINE
 8 
0
 62 
 7 
 10 
3.765
 20 
2.167
 11 
3.735
 21 
2.167
 0 
LINE
 8 
0
 62 
 7 
 10 
3.735
 20 
2.167
 11 
3.735
 21 
2.262
 0 
LINE
 8 
0
 62 
 7 
 10 
3.785
 20 
2.262
 11 
3.815
 21 
2.262
 0 
LINE
 8 
0
 62 
 7 
 10 
3.815
 20 
2.262
 11 
3.815
 21 
2.167
 0 
LINE
 8 
0
 62 
 7 
 10 
3.815
 20 
2.167
 11 
3.785
 21 
2.167
 0 
LINE
 8 
0
 62 
 7 
 10 
3.785
 20 
2.167
 11 
3.785
 21 
2.262
 0 
LINE
 8 
0
 62 
 7 
 10 
3.835
 20 
2.262
 11 
3.865
 21 
2.262
 0 
LINE
 8 
0
 62 
 7 
 10 
3.865
 20 
2.262
 11 
3.865
 21 
2.167
 0 
LINE
 8 
0
 62 
 7 
 10 
3.865
 20 
2.167
 11 
3.835
 21 
2.167
 0 
LINE
 8 
0
 62 
 7 
 10 
3.835
 20 
2.167
 11 
3.835
 21 
2.262
 0 
LINE
 8 
0
 62 
 7 
 10 
3.735
 20 
2.422
 11 
3.765
 21 
2.422
 0 
LINE
 8 
0
 62 
 7 
 10 
3.765
 20 
2.422
 11 
3.765
 21 
2.327
 0 
LINE
 8 
0
 62 
 7 
 10 
3.765
 20 
2.327
 11 
3.735
 21 
2.327
 0 
LINE
 8 
0
 62 
 7 
 10 
3.735
 20 
2.327
 11 
3.735
 21 
2.422
 0 
LINE
 8 
0
 62 
 7 
 10 
3.733
 20 
2.325
 11 
3.758
 21 
2.325
 0 
LINE
 8 
0
 62 
 7 
 10 
3.758
 20 
2.325
 11 
3.758
 21 
2.283
 0 
LINE
 8 
0
 62 
 7 
 10 
3.758
 20 
2.283
 11 
3.75
 21 
2.275
 0 
LINE
 8 
0
 62 
 7 
 10 
3.75
 20 
2.275
 11 
3.733
 21 
2.275
 0 
LINE
 8 
0
 62 
 7 
 10 
3.733
 20 
2.275
 11 
3.725
 21 
2.283
 0 
LINE
 8 
0
 62 
 7 
 10 
3.783
 20 
2.317
 11 
3.792
 21 
2.325
 0 
LINE
 8 
0
 62 
 7 
 10 
3.792
 20 
2.325
 11 
3.792
 21 
2.275
 0 
LINE
 8 
0
 62 
 7 
 10 
3.783
 20 
2.275
 11 
3.8
 21 
2.275
 0 
LINE
 8 
0
 62 
 7 
 10 
3.85
 20 
2.325
 11 
3.842
 21 
2.325
 0 
LINE
 8 
0
 62 
 7 
 10 
3.842
 20 
2.325
 11 
3.825
 21 
2.308
 0 
LINE
 8 
0
 62 
 7 
 10 
3.825
 20 
2.308
 11 
3.825
 21 
2.283
 0 
LINE
 8 
0
 62 
 7 
 10 
3.825
 20 
2.283
 11 
3.833
 21 
2.275
 0 
LINE
 8 
0
 62 
 7 
 10 
3.833
 20 
2.275
 11 
3.85
 21 
2.275
 0 
LINE
 8 
0
 62 
 7 
 10 
3.85
 20 
2.275
 11 
3.858
 21 
2.283
 0 
LINE
 8 
0
 62 
 7 
 10 
3.858
 20 
2.283
 11 
3.858
 21 
2.292
 0 
LINE
 8 
0
 62 
 7 
 10 
3.858
 20 
2.292
 11 
3.85
 21 
2.3
 0 
LINE
 8 
0
 62 
 7 
 10 
3.85
 20 
2.3
 11 
3.833
 21 
2.3
 0 
LINE
 8 
0
 62 
 7 
 10 
3.833
 20 
2.3
 11 
3.825
 21 
2.292
 0 
LINE
 8 
0
 62 
 7 
 10 
3.785
 20 
1.822
 11 
3.815
 21 
1.822
 0 
LINE
 8 
0
 62 
 7 
 10 
3.815
 20 
1.822
 11 
3.815
 21 
1.727
 0 
LINE
 8 
0
 62 
 7 
 10 
3.815
 20 
1.727
 11 
3.785
 21 
1.727
 0 
LINE
 8 
0
 62 
 7 
 10 
3.785
 20 
1.727
 11 
3.785
 21 
1.822
 0 
LINE
 8 
0
 62 
 7 
 10 
3.835
 20 
1.822
 11 
3.865
 21 
1.822
 0 
LINE
 8 
0
 62 
 7 
 10 
3.865
 20 
1.822
 11 
3.865
 21 
1.727
 0 
LINE
 8 
0
 62 
 7 
 10 
3.865
 20 
1.727
 11 
3.835
 21 
1.727
 0 
LINE
 8 
0
 62 
 7 
 10 
3.835
 20 
1.727
 11 
3.835
 21 
1.822
 0 
LINE
 8 
0
 62 
 7 
 10 
3.885
 20 
1.822
 11 
3.915
 21 
1.822
 0 
LINE
 8 
0
 62 
 7 
 10 
3.915
 20 
1.822
 11 
3.915
 21 
1.727
 0 
LINE
 8 
0
 62 
 7 
 10 
3.915
 20 
1.727
 11 
3.885
 21 
1.727
 0 
LINE
 8 
0
 62 
 7 
 10 
3.885
 20 
1.727
 11 
3.885
 21 
1.822
 0 
LINE
 8 
0
 62 
 7 
 10 
3.685
 20 
1.822
 11 
3.715
 21 
1.822
 0 
LINE
 8 
0
 62 
 7 
 10 
3.715
 20 
1.822
 11 
3.715
 21 
1.727
 0 
LINE
 8 
0
 62 
 7 
 10 
3.715
 20 
1.727
 11 
3.685
 21 
1.727
 0 
LINE
 8 
0
 62 
 7 
 10 
3.685
 20 
1.727
 11 
3.685
 21 
1.822
 0 
LINE
 8 
0
 62 
 7 
 10 
3.685
 20 
1.662
 11 
3.715
 21 
1.662
 0 
LINE
 8 
0
 62 
 7 
 10 
3.715
 20 
1.662
 11 
3.715
 21 
1.567
 0 
LINE
 8 
0
 62 
 7 
 10 
3.715
 20 
1.567
 11 
3.685
 21 
1.567
 0 
LINE
 8 
0
 62 
 7 
 10 
3.685
 20 
1.567
 11 
3.685
 21 
1.662
 0 
LINE
 8 
0
 62 
 7 
 10 
3.885
 20 
1.662
 11 
3.915
 21 
1.662
 0 
LINE
 8 
0
 62 
 7 
 10 
3.915
 20 
1.662
 11 
3.915
 21 
1.567
 0 
LINE
 8 
0
 62 
 7 
 10 
3.915
 20 
1.567
 11 
3.885
 21 
1.567
 0 
LINE
 8 
0
 62 
 7 
 10 
3.885
 20 
1.567
 11 
3.885
 21 
1.662
 0 
LINE
 8 
0
 62 
 7 
 10 
3.735
 20 
1.662
 11 
3.765
 21 
1.662
 0 
LINE
 8 
0
 62 
 7 
 10 
3.765
 20 
1.662
 11 
3.765
 21 
1.567
 0 
LINE
 8 
0
 62 
 7 
 10 
3.765
 20 
1.567
 11 
3.735
 21 
1.567
 0 
LINE
 8 
0
 62 
 7 
 10 
3.735
 20 
1.567
 11 
3.735
 21 
1.662
 0 
LINE
 8 
0
 62 
 7 
 10 
3.785
 20 
1.662
 11 
3.815
 21 
1.662
 0 
LINE
 8 
0
 62 
 7 
 10 
3.815
 20 
1.662
 11 
3.815
 21 
1.567
 0 
LINE
 8 
0
 62 
 7 
 10 
3.815
 20 
1.567
 11 
3.785
 21 
1.567
 0 
LINE
 8 
0
 62 
 7 
 10 
3.785
 20 
1.567
 11 
3.785
 21 
1.662
 0 
LINE
 8 
0
 62 
 7 
 10 
3.033
 20 
1.225
 11 
3.058
 21 
1.225
 0 
LINE
 8 
0
 62 
 7 
 10 
3.058
 20 
1.225
 11 
3.058
 21 
1.183
 0 
LINE
 8 
0
 62 
 7 
 10 
3.058
 20 
1.183
 11 
3.05
 21 
1.175
 0 
LINE
 8 
0
 62 
 7 
 10 
3.05
 20 
1.175
 11 
3.033
 21 
1.175
 0 
LINE
 8 
0
 62 
 7 
 10 
3.033
 20 
1.175
 11 
3.025
 21 
1.183
 0 
LINE
 8 
0
 62 
 7 
 10 
3.075
 20 
1.217
 11 
3.083
 21 
1.225
 0 
LINE
 8 
0
 62 
 7 
 10 
3.083
 20 
1.225
 11 
3.1
 21 
1.225
 0 
LINE
 8 
0
 62 
 7 
 10 
3.1
 20 
1.225
 11 
3.108
 21 
1.217
 0 
LINE
 8 
0
 62 
 7 
 10 
3.108
 20 
1.217
 11 
3.108
 21 
1.208
 0 
LINE
 8 
0
 62 
 7 
 10 
3.108
 20 
1.208
 11 
3.1
 21 
1.2
 0 
LINE
 8 
0
 62 
 7 
 10 
3.1
 20 
1.2
 11 
3.083
 21 
1.2
 0 
LINE
 8 
0
 62 
 7 
 10 
3.083
 20 
1.2
 11 
3.075
 21 
1.192
 0 
LINE
 8 
0
 62 
 7 
 10 
3.075
 20 
1.192
 11 
3.075
 21 
1.175
 0 
LINE
 8 
0
 62 
 7 
 10 
3.075
 20 
1.175
 11 
3.108
 21 
1.175
 0 
LINE
 8 
0
 62 
 7 
 10 
3.125
 20 
1.217
 11 
3.133
 21 
1.225
 0 
LINE
 8 
0
 62 
 7 
 10 
3.133
 20 
1.225
 11 
3.15
 21 
1.225
 0 
LINE
 8 
0
 62 
 7 
 10 
3.15
 20 
1.225
 11 
3.158
 21 
1.217
 0 
LINE
 8 
0
 62 
 7 
 10 
3.158
 20 
1.217
 11 
3.158
 21 
1.208
 0 
LINE
 8 
0
 62 
 7 
 10 
3.158
 20 
1.208
 11 
3.15
 21 
1.2
 0 
LINE
 8 
0
 62 
 7 
 10 
3.15
 20 
1.2
 11 
3.142
 21 
1.2
 0 
LINE
 8 
0
 62 
 7 
 10 
3.15
 20 
1.2
 11 
3.158
 21 
1.192
 0 
LINE
 8 
0
 62 
 7 
 10 
3.158
 20 
1.192
 11 
3.158
 21 
1.183
 0 
LINE
 8 
0
 62 
 7 
 10 
3.158
 20 
1.183
 11 
3.15
 21 
1.175
 0 
LINE
 8 
0
 62 
 7 
 10 
3.15
 20 
1.175
 11 
3.133
 21 
1.175
 0 
LINE
 8 
0
 62 
 7 
 10 
3.133
 20 
1.175
 11 
3.125
 21 
1.183
 0 
LINE
 8 
0
 62 
 7 
 10 
3.785
 20 
1.322
 11 
3.815
 21 
1.322
 0 
LINE
 8 
0
 62 
 7 
 10 
3.815
 20 
1.322
 11 
3.815
 21 
1.227
 0 
LINE
 8 
0
 62 
 7 
 10 
3.815
 20 
1.227
 11 
3.785
 21 
1.227
 0 
LINE
 8 
0
 62 
 7 
 10 
3.785
 20 
1.227
 11 
3.785
 21 
1.322
 0 
LINE
 8 
0
 62 
 7 
 10 
3.835
 20 
1.322
 11 
3.865
 21 
1.322
 0 
LINE
 8 
0
 62 
 7 
 10 
3.865
 20 
1.322
 11 
3.865
 21 
1.227
 0 
LINE
 8 
0
 62 
 7 
 10 
3.865
 20 
1.227
 11 
3.835
 21 
1.227
 0 
LINE
 8 
0
 62 
 7 
 10 
3.835
 20 
1.227
 11 
3.835
 21 
1.322
 0 
LINE
 8 
0
 62 
 7 
 10 
3.885
 20 
1.322
 11 
3.915
 21 
1.322
 0 
LINE
 8 
0
 62 
 7 
 10 
3.915
 20 
1.322
 11 
3.915
 21 
1.227
 0 
LINE
 8 
0
 62 
 7 
 10 
3.915
 20 
1.227
 11 
3.885
 21 
1.227
 0 
LINE
 8 
0
 62 
 7 
 10 
3.885
 20 
1.227
 11 
3.885
 21 
1.322
 0 
LINE
 8 
0
 62 
 7 
 10 
3.685
 20 
1.322
 11 
3.715
 21 
1.322
 0 
LINE
 8 
0
 62 
 7 
 10 
3.715
 20 
1.322
 11 
3.715
 21 
1.227
 0 
LINE
 8 
0
 62 
 7 
 10 
3.715
 20 
1.227
 11 
3.685
 21 
1.227
 0 
LINE
 8 
0
 62 
 7 
 10 
3.685
 20 
1.227
 11 
3.685
 21 
1.322
 0 
LINE
 8 
0
 62 
 7 
 10 
3.685
 20 
1.162
 11 
3.715
 21 
1.162
 0 
LINE
 8 
0
 62 
 7 
 10 
3.715
 20 
1.162
 11 
3.715
 21 
1.067
 0 
LINE
 8 
0
 62 
 7 
 10 
3.715
 20 
1.067
 11 
3.685
 21 
1.067
 0 
LINE
 8 
0
 62 
 7 
 10 
3.685
 20 
1.067
 11 
3.685
 21 
1.162
 0 
LINE
 8 
0
 62 
 7 
 10 
3.885
 20 
1.162
 11 
3.915
 21 
1.162
 0 
LINE
 8 
0
 62 
 7 
 10 
3.915
 20 
1.162
 11 
3.915
 21 
1.067
 0 
LINE
 8 
0
 62 
 7 
 10 
3.915
 20 
1.067
 11 
3.885
 21 
1.067
 0 
LINE
 8 
0
 62 
 7 
 10 
3.885
 20 
1.067
 11 
3.885
 21 
1.162
 0 
LINE
 8 
0
 62 
 7 
 10 
3.735
 20 
1.162
 11 
3.765
 21 
1.162
 0 
LINE
 8 
0
 62 
 7 
 10 
3.765
 20 
1.162
 11 
3.765
 21 
1.067
 0 
LINE
 8 
0
 62 
 7 
 10 
3.765
 20 
1.067
 11 
3.735
 21 
1.067
 0 
LINE
 8 
0
 62 
 7 
 10 
3.735
 20 
1.067
 11 
3.735
 21 
1.162
 0 
LINE
 8 
0
 62 
 7 
 10 
3.785
 20 
1.162
 11 
3.815
 21 
1.162
 0 
LINE
 8 
0
 62 
 7 
 10 
3.815
 20 
1.162
 11 
3.815
 21 
1.067
 0 
LINE
 8 
0
 62 
 7 
 10 
3.815
 20 
1.067
 11 
3.785
 21 
1.067
 0 
LINE
 8 
0
 62 
 7 
 10 
3.785
 20 
1.067
 11 
3.785
 21 
1.162
 0 
LINE
 8 
0
 62 
 7 
 10 
3.835
 20 
1.162
 11 
3.865
 21 
1.162
 0 
LINE
 8 
0
 62 
 7 
 10 
3.865
 20 
1.162
 11 
3.865
 21 
1.067
 0 
LINE
 8 
0
 62 
 7 
 10 
3.865
 20 
1.067
 11 
3.835
 21 
1.067
 0 
LINE
 8 
0
 62 
 7 
 10 
3.835
 20 
1.067
 11 
3.835
 21 
1.162
 0 
LINE
 8 
0
 62 
 7 
 10 
3.735
 20 
1.322
 11 
3.765
 21 
1.322
 0 
LINE
 8 
0
 62 
 7 
 10 
3.765
 20 
1.322
 11 
3.765
 21 
1.227
 0 
LINE
 8 
0
 62 
 7 
 10 
3.765
 20 
1.227
 11 
3.735
 21 
1.227
 0 
LINE
 8 
0
 62 
 7 
 10 
3.735
 20 
1.227
 11 
3.735
 21 
1.322
 0 
LINE
 8 
0
 62 
 7 
 10 
3.733
 20 
1.225
 11 
3.758
 21 
1.225
 0 
LINE
 8 
0
 62 
 7 
 10 
3.758
 20 
1.225
 11 
3.758
 21 
1.183
 0 
LINE
 8 
0
 62 
 7 
 10 
3.758
 20 
1.183
 11 
3.75
 21 
1.175
 0 
LINE
 8 
0
 62 
 7 
 10 
3.75
 20 
1.175
 11 
3.733
 21 
1.175
 0 
LINE
 8 
0
 62 
 7 
 10 
3.733
 20 
1.175
 11 
3.725
 21 
1.183
 0 
LINE
 8 
0
 62 
 7 
 10 
3.775
 20 
1.217
 11 
3.783
 21 
1.225
 0 
LINE
 8 
0
 62 
 7 
 10 
3.783
 20 
1.225
 11 
3.8
 21 
1.225
 0 
LINE
 8 
0
 62 
 7 
 10 
3.8
 20 
1.225
 11 
3.808
 21 
1.217
 0 
LINE
 8 
0
 62 
 7 
 10 
3.808
 20 
1.217
 11 
3.808
 21 
1.208
 0 
LINE
 8 
0
 62 
 7 
 10 
3.808
 20 
1.208
 11 
3.8
 21 
1.2
 0 
LINE
 8 
0
 62 
 7 
 10 
3.8
 20 
1.2
 11 
3.783
 21 
1.2
 0 
LINE
 8 
0
 62 
 7 
 10 
3.783
 20 
1.2
 11 
3.775
 21 
1.192
 0 
LINE
 8 
0
 62 
 7 
 10 
3.775
 20 
1.192
 11 
3.775
 21 
1.175
 0 
LINE
 8 
0
 62 
 7 
 10 
3.775
 20 
1.175
 11 
3.808
 21 
1.175
 0 
LINE
 8 
0
 62 
 7 
 10 
3.858
 20 
1.192
 11 
3.825
 21 
1.192
 0 
LINE
 8 
0
 62 
 7 
 10 
3.825
 20 
1.192
 11 
3.825
 21 
1.2
 0 
LINE
 8 
0
 62 
 7 
 10 
3.825
 20 
1.2
 11 
3.85
 21 
1.225
 0 
LINE
 8 
0
 62 
 7 
 10 
3.85
 20 
1.225
 11 
3.85
 21 
1.175
 0 
LINE
 8 
0
 62 
 7 
 10 
3.785
 20 
0.722
 11 
3.815
 21 
0.722
 0 
LINE
 8 
0
 62 
 7 
 10 
3.815
 20 
0.722
 11 
3.815
 21 
0.627
 0 
LINE
 8 
0
 62 
 7 
 10 
3.815
 20 
0.627
 11 
3.785
 21 
0.627
 0 
LINE
 8 
0
 62 
 7 
 10 
3.785
 20 
0.627
 11 
3.785
 21 
0.722
 0 
LINE
 8 
0
 62 
 7 
 10 
3.835
 20 
0.722
 11 
3.865
 21 
0.722
 0 
LINE
 8 
0
 62 
 7 
 10 
3.865
 20 
0.722
 11 
3.865
 21 
0.627
 0 
LINE
 8 
0
 62 
 7 
 10 
3.865
 20 
0.627
 11 
3.835
 21 
0.627
 0 
LINE
 8 
0
 62 
 7 
 10 
3.835
 20 
0.627
 11 
3.835
 21 
0.722
 0 
LINE
 8 
0
 62 
 7 
 10 
3.885
 20 
0.722
 11 
3.915
 21 
0.722
 0 
LINE
 8 
0
 62 
 7 
 10 
3.915
 20 
0.722
 11 
3.915
 21 
0.627
 0 
LINE
 8 
0
 62 
 7 
 10 
3.915
 20 
0.627
 11 
3.885
 21 
0.627
 0 
LINE
 8 
0
 62 
 7 
 10 
3.885
 20 
0.627
 11 
3.885
 21 
0.722
 0 
LINE
 8 
0
 62 
 7 
 10 
3.685
 20 
0.722
 11 
3.715
 21 
0.722
 0 
LINE
 8 
0
 62 
 7 
 10 
3.715
 20 
0.722
 11 
3.715
 21 
0.627
 0 
LINE
 8 
0
 62 
 7 
 10 
3.715
 20 
0.627
 11 
3.685
 21 
0.627
 0 
LINE
 8 
0
 62 
 7 
 10 
3.685
 20 
0.627
 11 
3.685
 21 
0.722
 0 
LINE
 8 
0
 62 
 7 
 10 
3.685
 20 
0.562
 11 
3.715
 21 
0.562
 0 
LINE
 8 
0
 62 
 7 
 10 
3.715
 20 
0.562
 11 
3.715
 21 
0.467
 0 
LINE
 8 
0
 62 
 7 
 10 
3.715
 20 
0.467
 11 
3.685
 21 
0.467
 0 
LINE
 8 
0
 62 
 7 
 10 
3.685
 20 
0.467
 11 
3.685
 21 
0.562
 0 
LINE
 8 
0
 62 
 7 
 10 
3.885
 20 
0.562
 11 
3.915
 21 
0.562
 0 
LINE
 8 
0
 62 
 7 
 10 
3.915
 20 
0.562
 11 
3.915
 21 
0.467
 0 
LINE
 8 
0
 62 
 7 
 10 
3.915
 20 
0.467
 11 
3.885
 21 
0.467
 0 
LINE
 8 
0
 62 
 7 
 10 
3.885
 20 
0.467
 11 
3.885
 21 
0.562
 0 
LINE
 8 
0
 62 
 7 
 10 
3.735
 20 
0.562
 11 
3.765
 21 
0.562
 0 
LINE
 8 
0
 62 
 7 
 10 
3.765
 20 
0.562
 11 
3.765
 21 
0.467
 0 
LINE
 8 
0
 62 
 7 
 10 
3.765
 20 
0.467
 11 
3.735
 21 
0.467
 0 
LINE
 8 
0
 62 
 7 
 10 
3.735
 20 
0.467
 11 
3.735
 21 
0.562
 0 
LINE
 8 
0
 62 
 7 
 10 
3.785
 20 
0.562
 11 
3.815
 21 
0.562
 0 
LINE
 8 
0
 62 
 7 
 10 
3.815
 20 
0.562
 11 
3.815
 21 
0.467
 0 
LINE
 8 
0
 62 
 7 
 10 
3.815
 20 
0.467
 11 
3.785
 21 
0.467
 0 
LINE
 8 
0
 62 
 7 
 10 
3.785
 20 
0.467
 11 
3.785
 21 
0.562
 0 
LINE
 8 
0
 62 
 7 
 10 
2.485
 20 
2.762
 11 
2.515
 21 
2.762
 0 
LINE
 8 
0
 62 
 7 
 10 
2.515
 20 
2.762
 11 
2.515
 21 
2.667
 0 
LINE
 8 
0
 62 
 7 
 10 
2.515
 20 
2.667
 11 
2.485
 21 
2.667
 0 
LINE
 8 
0
 62 
 7 
 10 
2.485
 20 
2.667
 11 
2.485
 21 
2.762
 0 
LINE
 8 
0
 62 
 7 
 10 
2.335
 20 
2.762
 11 
2.365
 21 
2.762
 0 
LINE
 8 
0
 62 
 7 
 10 
2.365
 20 
2.762
 11 
2.365
 21 
2.667
 0 
LINE
 8 
0
 62 
 7 
 10 
2.365
 20 
2.667
 11 
2.335
 21 
2.667
 0 
LINE
 8 
0
 62 
 7 
 10 
2.335
 20 
2.667
 11 
2.335
 21 
2.762
 0 
LINE
 8 
0
 62 
 7 
 10 
2.385
 20 
2.762
 11 
2.415
 21 
2.762
 0 
LINE
 8 
0
 62 
 7 
 10 
2.415
 20 
2.762
 11 
2.415
 21 
2.667
 0 
LINE
 8 
0
 62 
 7 
 10 
2.415
 20 
2.667
 11 
2.385
 21 
2.667
 0 
LINE
 8 
0
 62 
 7 
 10 
2.385
 20 
2.667
 11 
2.385
 21 
2.762
 0 
LINE
 8 
0
 62 
 7 
 10 
2.435
 20 
2.762
 11 
2.465
 21 
2.762
 0 
LINE
 8 
0
 62 
 7 
 10 
2.465
 20 
2.762
 11 
2.465
 21 
2.667
 0 
LINE
 8 
0
 62 
 7 
 10 
2.465
 20 
2.667
 11 
2.435
 21 
2.667
 0 
LINE
 8 
0
 62 
 7 
 10 
2.435
 20 
2.667
 11 
2.435
 21 
2.762
 0 
LINE
 8 
0
 62 
 7 
 10 
2.335
 20 
2.922
 11 
2.365
 21 
2.922
 0 
LINE
 8 
0
 62 
 7 
 10 
2.365
 20 
2.922
 11 
2.365
 21 
2.827
 0 
LINE
 8 
0
 62 
 7 
 10 
2.365
 20 
2.827
 11 
2.335
 21 
2.827
 0 
LINE
 8 
0
 62 
 7 
 10 
2.335
 20 
2.827
 11 
2.335
 21 
2.922
 0 
LINE
 8 
0
 62 
 7 
 10 
2.333
 20 
2.825
 11 
2.358
 21 
2.825
 0 
LINE
 8 
0
 62 
 7 
 10 
2.358
 20 
2.825
 11 
2.358
 21 
2.783
 0 
LINE
 8 
0
 62 
 7 
 10 
2.358
 20 
2.783
 11 
2.35
 21 
2.775
 0 
LINE
 8 
0
 62 
 7 
 10 
2.35
 20 
2.775
 11 
2.333
 21 
2.775
 0 
LINE
 8 
0
 62 
 7 
 10 
2.333
 20 
2.775
 11 
2.325
 21 
2.783
 0 
LINE
 8 
0
 62 
 7 
 10 
2.383
 20 
2.817
 11 
2.392
 21 
2.825
 0 
LINE
 8 
0
 62 
 7 
 10 
2.392
 20 
2.825
 11 
2.392
 21 
2.775
 0 
LINE
 8 
0
 62 
 7 
 10 
2.383
 20 
2.775
 11 
2.4
 21 
2.775
 0 
LINE
 8 
0
 62 
 7 
 10 
2.425
 20 
2.783
 11 
2.425
 21 
2.817
 0 
LINE
 8 
0
 62 
 7 
 10 
2.425
 20 
2.817
 11 
2.433
 21 
2.825
 0 
LINE
 8 
0
 62 
 7 
 10 
2.433
 20 
2.825
 11 
2.45
 21 
2.825
 0 
LINE
 8 
0
 62 
 7 
 10 
2.45
 20 
2.825
 11 
2.458
 21 
2.817
 0 
LINE
 8 
0
 62 
 7 
 10 
2.458
 20 
2.817
 11 
2.458
 21 
2.783
 0 
LINE
 8 
0
 62 
 7 
 10 
2.458
 20 
2.783
 11 
2.45
 21 
2.775
 0 
LINE
 8 
0
 62 
 7 
 10 
2.45
 20 
2.775
 11 
2.433
 21 
2.775
 0 
LINE
 8 
0
 62 
 7 
 10 
2.433
 20 
2.775
 11 
2.425
 21 
2.783
 0 
LINE
 8 
0
 62 
 7 
 10 
2.425
 20 
2.783
 11 
2.458
 21 
2.817
 0 
LINE
 8 
0
 62 
 7 
 10 
3.085
 20 
2.922
 11 
3.115
 21 
2.922
 0 
LINE
 8 
0
 62 
 7 
 10 
3.115
 20 
2.922
 11 
3.115
 21 
2.827
 0 
LINE
 8 
0
 62 
 7 
 10 
3.115
 20 
2.827
 11 
3.085
 21 
2.827
 0 
LINE
 8 
0
 62 
 7 
 10 
3.085
 20 
2.827
 11 
3.085
 21 
2.922
 0 
LINE
 8 
0
 62 
 7 
 10 
3.135
 20 
2.922
 11 
3.165
 21 
2.922
 0 
LINE
 8 
0
 62 
 7 
 10 
3.165
 20 
2.922
 11 
3.165
 21 
2.827
 0 
LINE
 8 
0
 62 
 7 
 10 
3.165
 20 
2.827
 11 
3.135
 21 
2.827
 0 
LINE
 8 
0
 62 
 7 
 10 
3.135
 20 
2.827
 11 
3.135
 21 
2.922
 0 
LINE
 8 
0
 62 
 7 
 10 
3.185
 20 
2.922
 11 
3.215
 21 
2.922
 0 
LINE
 8 
0
 62 
 7 
 10 
3.215
 20 
2.922
 11 
3.215
 21 
2.827
 0 
LINE
 8 
0
 62 
 7 
 10 
3.215
 20 
2.827
 11 
3.185
 21 
2.827
 0 
LINE
 8 
0
 62 
 7 
 10 
3.185
 20 
2.827
 11 
3.185
 21 
2.922
 0 
LINE
 8 
0
 62 
 7 
 10 
2.985
 20 
2.922
 11 
3.015
 21 
2.922
 0 
LINE
 8 
0
 62 
 7 
 10 
3.015
 20 
2.922
 11 
3.015
 21 
2.827
 0 
LINE
 8 
0
 62 
 7 
 10 
3.015
 20 
2.827
 11 
2.985
 21 
2.827
 0 
LINE
 8 
0
 62 
 7 
 10 
2.985
 20 
2.827
 11 
2.985
 21 
2.922
 0 
LINE
 8 
0
 62 
 7 
 10 
1.685
 20 
3.522
 11 
1.715
 21 
3.522
 0 
LINE
 8 
0
 62 
 7 
 10 
1.715
 20 
3.522
 11 
1.715
 21 
3.427
 0 
LINE
 8 
0
 62 
 7 
 10 
1.715
 20 
3.427
 11 
1.685
 21 
3.427
 0 
LINE
 8 
0
 62 
 7 
 10 
1.685
 20 
3.427
 11 
1.685
 21 
3.522
 0 
LINE
 8 
0
 62 
 7 
 10 
1.735
 20 
3.522
 11 
1.765
 21 
3.522
 0 
LINE
 8 
0
 62 
 7 
 10 
1.765
 20 
3.522
 11 
1.765
 21 
3.427
 0 
LINE
 8 
0
 62 
 7 
 10 
1.765
 20 
3.427
 11 
1.735
 21 
3.427
 0 
LINE
 8 
0
 62 
 7 
 10 
1.735
 20 
3.427
 11 
1.735
 21 
3.522
 0 
LINE
 8 
0
 62 
 7 
 10 
1.785
 20 
3.522
 11 
1.815
 21 
3.522
 0 
LINE
 8 
0
 62 
 7 
 10 
1.815
 20 
3.522
 11 
1.815
 21 
3.427
 0 
LINE
 8 
0
 62 
 7 
 10 
1.815
 20 
3.427
 11 
1.785
 21 
3.427
 0 
LINE
 8 
0
 62 
 7 
 10 
1.785
 20 
3.427
 11 
1.785
 21 
3.522
 0 
LINE
 8 
0
 62 
 7 
 10 
1.585
 20 
3.522
 11 
1.615
 21 
3.522
 0 
LINE
 8 
0
 62 
 7 
 10 
1.615
 20 
3.522
 11 
1.615
 21 
3.427
 0 
LINE
 8 
0
 62 
 7 
 10 
1.615
 20 
3.427
 11 
1.585
 21 
3.427
 0 
LINE
 8 
0
 62 
 7 
 10 
1.585
 20 
3.427
 11 
1.585
 21 
3.522
 0 
LINE
 8 
0
 62 
 7 
 10 
1.585
 20 
3.362
 11 
1.615
 21 
3.362
 0 
LINE
 8 
0
 62 
 7 
 10 
1.615
 20 
3.362
 11 
1.615
 21 
3.267
 0 
LINE
 8 
0
 62 
 7 
 10 
1.615
 20 
3.267
 11 
1.585
 21 
3.267
 0 
LINE
 8 
0
 62 
 7 
 10 
1.585
 20 
3.267
 11 
1.585
 21 
3.362
 0 
LINE
 8 
0
 62 
 7 
 10 
1.785
 20 
3.362
 11 
1.815
 21 
3.362
 0 
LINE
 8 
0
 62 
 7 
 10 
1.815
 20 
3.362
 11 
1.815
 21 
3.267
 0 
LINE
 8 
0
 62 
 7 
 10 
1.815
 20 
3.267
 11 
1.785
 21 
3.267
 0 
LINE
 8 
0
 62 
 7 
 10 
1.785
 20 
3.267
 11 
1.785
 21 
3.362
 0 
LINE
 8 
0
 62 
 7 
 10 
1.635
 20 
3.362
 11 
1.665
 21 
3.362
 0 
LINE
 8 
0
 62 
 7 
 10 
1.665
 20 
3.362
 11 
1.665
 21 
3.267
 0 
LINE
 8 
0
 62 
 7 
 10 
1.665
 20 
3.267
 11 
1.635
 21 
3.267
 0 
LINE
 8 
0
 62 
 7 
 10 
1.635
 20 
3.267
 11 
1.635
 21 
3.362
 0 
LINE
 8 
0
 62 
 7 
 10 
1.685
 20 
3.362
 11 
1.715
 21 
3.362
 0 
LINE
 8 
0
 62 
 7 
 10 
1.715
 20 
3.362
 11 
1.715
 21 
3.267
 0 
LINE
 8 
0
 62 
 7 
 10 
1.715
 20 
3.267
 11 
1.685
 21 
3.267
 0 
LINE
 8 
0
 62 
 7 
 10 
1.685
 20 
3.267
 11 
1.685
 21 
3.362
 0 
LINE
 8 
0
 62 
 7 
 10 
1.735
 20 
3.362
 11 
1.765
 21 
3.362
 0 
LINE
 8 
0
 62 
 7 
 10 
1.765
 20 
3.362
 11 
1.765
 21 
3.267
 0 
LINE
 8 
0
 62 
 7 
 10 
1.765
 20 
3.267
 11 
1.735
 21 
3.267
 0 
LINE
 8 
0
 62 
 7 
 10 
1.735
 20 
3.267
 11 
1.735
 21 
3.362
 0 
LINE
 8 
0
 62 
 7 
 10 
1.635
 20 
3.522
 11 
1.665
 21 
3.522
 0 
LINE
 8 
0
 62 
 7 
 10 
1.665
 20 
3.522
 11 
1.665
 21 
3.427
 0 
LINE
 8 
0
 62 
 7 
 10 
1.665
 20 
3.427
 11 
1.635
 21 
3.427
 0 
LINE
 8 
0
 62 
 7 
 10 
1.635
 20 
3.427
 11 
1.635
 21 
3.522
 0 
LINE
 8 
0
 62 
 7 
 10 
3.835
 20 
1.662
 11 
3.865
 21 
1.662
 0 
LINE
 8 
0
 62 
 7 
 10 
3.865
 20 
1.662
 11 
3.865
 21 
1.567
 0 
LINE
 8 
0
 62 
 7 
 10 
3.865
 20 
1.567
 11 
3.835
 21 
1.567
 0 
LINE
 8 
0
 62 
 7 
 10 
3.835
 20 
1.567
 11 
3.835
 21 
1.662
 0 
LINE
 8 
0
 62 
 7 
 10 
3.735
 20 
1.822
 11 
3.765
 21 
1.822
 0 
LINE
 8 
0
 62 
 7 
 10 
3.765
 20 
1.822
 11 
3.765
 21 
1.727
 0 
LINE
 8 
0
 62 
 7 
 10 
3.765
 20 
1.727
 11 
3.735
 21 
1.727
 0 
LINE
 8 
0
 62 
 7 
 10 
3.735
 20 
1.727
 11 
3.735
 21 
1.822
 0 
LINE
 8 
0
 62 
 7 
 10 
3.733
 20 
1.725
 11 
3.758
 21 
1.725
 0 
LINE
 8 
0
 62 
 7 
 10 
3.758
 20 
1.725
 11 
3.758
 21 
1.683
 0 
LINE
 8 
0
 62 
 7 
 10 
3.758
 20 
1.683
 11 
3.75
 21 
1.675
 0 
LINE
 8 
0
 62 
 7 
 10 
3.75
 20 
1.675
 11 
3.733
 21 
1.675
 0 
LINE
 8 
0
 62 
 7 
 10 
3.733
 20 
1.675
 11 
3.725
 21 
1.683
 0 
LINE
 8 
0
 62 
 7 
 10 
3.775
 20 
1.717
 11 
3.783
 21 
1.725
 0 
LINE
 8 
0
 62 
 7 
 10 
3.783
 20 
1.725
 11 
3.8
 21 
1.725
 0 
LINE
 8 
0
 62 
 7 
 10 
3.8
 20 
1.725
 11 
3.808
 21 
1.717
 0 
LINE
 8 
0
 62 
 7 
 10 
3.808
 20 
1.717
 11 
3.808
 21 
1.708
 0 
LINE
 8 
0
 62 
 7 
 10 
3.808
 20 
1.708
 11 
3.8
 21 
1.7
 0 
LINE
 8 
0
 62 
 7 
 10 
3.8
 20 
1.7
 11 
3.783
 21 
1.7
 0 
LINE
 8 
0
 62 
 7 
 10 
3.783
 20 
1.7
 11 
3.775
 21 
1.692
 0 
LINE
 8 
0
 62 
 7 
 10 
3.775
 20 
1.692
 11 
3.775
 21 
1.675
 0 
LINE
 8 
0
 62 
 7 
 10 
3.775
 20 
1.675
 11 
3.808
 21 
1.675
 0 
LINE
 8 
0
 62 
 7 
 10 
3.825
 20 
1.683
 11 
3.825
 21 
1.717
 0 
LINE
 8 
0
 62 
 7 
 10 
3.825
 20 
1.717
 11 
3.833
 21 
1.725
 0 
LINE
 8 
0
 62 
 7 
 10 
3.833
 20 
1.725
 11 
3.85
 21 
1.725
 0 
LINE
 8 
0
 62 
 7 
 10 
3.85
 20 
1.725
 11 
3.858
 21 
1.717
 0 
LINE
 8 
0
 62 
 7 
 10 
3.858
 20 
1.717
 11 
3.858
 21 
1.683
 0 
LINE
 8 
0
 62 
 7 
 10 
3.858
 20 
1.683
 11 
3.85
 21 
1.675
 0 
LINE
 8 
0
 62 
 7 
 10 
3.85
 20 
1.675
 11 
3.833
 21 
1.675
 0 
LINE
 8 
0
 62 
 7 
 10 
3.833
 20 
1.675
 11 
3.825
 21 
1.683
 0 
LINE
 8 
0
 62 
 7 
 10 
3.825
 20 
1.683
 11 
3.858
 21 
1.717
 0 
LINE
 8 
0
 62 
 7 
 10 
3.085
 20 
1.822
 11 
3.115
 21 
1.822
 0 
LINE
 8 
0
 62 
 7 
 10 
3.115
 20 
1.822
 11 
3.115
 21 
1.727
 0 
LINE
 8 
0
 62 
 7 
 10 
3.115
 20 
1.727
 11 
3.085
 21 
1.727
 0 
LINE
 8 
0
 62 
 7 
 10 
3.085
 20 
1.727
 11 
3.085
 21 
1.822
 0 
LINE
 8 
0
 62 
 7 
 10 
3.135
 20 
1.822
 11 
3.165
 21 
1.822
 0 
LINE
 8 
0
 62 
 7 
 10 
3.165
 20 
1.822
 11 
3.165
 21 
1.727
 0 
LINE
 8 
0
 62 
 7 
 10 
3.165
 20 
1.727
 11 
3.135
 21 
1.727
 0 
LINE
 8 
0
 62 
 7 
 10 
3.135
 20 
1.727
 11 
3.135
 21 
1.822
 0 
LINE
 8 
0
 62 
 7 
 10 
3.185
 20 
1.822
 11 
3.215
 21 
1.822
 0 
LINE
 8 
0
 62 
 7 
 10 
3.215
 20 
1.822
 11 
3.215
 21 
1.727
 0 
LINE
 8 
0
 62 
 7 
 10 
3.215
 20 
1.727
 11 
3.185
 21 
1.727
 0 
LINE
 8 
0
 62 
 7 
 10 
3.185
 20 
1.727
 11 
3.185
 21 
1.822
 0 
LINE
 8 
0
 62 
 7 
 10 
2.985
 20 
1.822
 11 
3.015
 21 
1.822
 0 
LINE
 8 
0
 62 
 7 
 10 
3.015
 20 
1.822
 11 
3.015
 21 
1.727
 0 
LINE
 8 
0
 62 
 7 
 10 
3.015
 20 
1.727
 11 
2.985
 21 
1.727
 0 
LINE
 8 
0
 62 
 7 
 10 
2.985
 20 
1.727
 11 
2.985
 21 
1.822
 0 
LINE
 8 
0
 62 
 7 
 10 
2.985
 20 
1.662
 11 
3.015
 21 
1.662
 0 
LINE
 8 
0
 62 
 7 
 10 
3.015
 20 
1.662
 11 
3.015
 21 
1.567
 0 
LINE
 8 
0
 62 
 7 
 10 
3.015
 20 
1.567
 11 
2.985
 21 
1.567
 0 
LINE
 8 
0
 62 
 7 
 10 
2.985
 20 
1.567
 11 
2.985
 21 
1.662
 0 
LINE
 8 
0
 62 
 7 
 10 
3.185
 20 
1.662
 11 
3.215
 21 
1.662
 0 
LINE
 8 
0
 62 
 7 
 10 
3.215
 20 
1.662
 11 
3.215
 21 
1.567
 0 
LINE
 8 
0
 62 
 7 
 10 
3.215
 20 
1.567
 11 
3.185
 21 
1.567
 0 
LINE
 8 
0
 62 
 7 
 10 
3.185
 20 
1.567
 11 
3.185
 21 
1.662
 0 
LINE
 8 
0
 62 
 7 
 10 
3.035
 20 
1.662
 11 
3.065
 21 
1.662
 0 
LINE
 8 
0
 62 
 7 
 10 
3.065
 20 
1.662
 11 
3.065
 21 
1.567
 0 
LINE
 8 
0
 62 
 7 
 10 
3.065
 20 
1.567
 11 
3.035
 21 
1.567
 0 
LINE
 8 
0
 62 
 7 
 10 
3.035
 20 
1.567
 11 
3.035
 21 
1.662
 0 
LINE
 8 
0
 62 
 7 
 10 
3.085
 20 
1.662
 11 
3.115
 21 
1.662
 0 
LINE
 8 
0
 62 
 7 
 10 
3.115
 20 
1.662
 11 
3.115
 21 
1.567
 0 
LINE
 8 
0
 62 
 7 
 10 
3.115
 20 
1.567
 11 
3.085
 21 
1.567
 0 
LINE
 8 
0
 62 
 7 
 10 
3.085
 20 
1.567
 11 
3.085
 21 
1.662
 0 
LINE
 8 
0
 62 
 7 
 10 
3.135
 20 
1.662
 11 
3.165
 21 
1.662
 0 
LINE
 8 
0
 62 
 7 
 10 
3.165
 20 
1.662
 11 
3.165
 21 
1.567
 0 
LINE
 8 
0
 62 
 7 
 10 
3.165
 20 
1.567
 11 
3.135
 21 
1.567
 0 
LINE
 8 
0
 62 
 7 
 10 
3.135
 20 
1.567
 11 
3.135
 21 
1.662
 0 
LINE
 8 
0
 62 
 7 
 10 
3.835
 20 
0.562
 11 
3.865
 21 
0.562
 0 
LINE
 8 
0
 62 
 7 
 10 
3.865
 20 
0.562
 11 
3.865
 21 
0.467
 0 
LINE
 8 
0
 62 
 7 
 10 
3.865
 20 
0.467
 11 
3.835
 21 
0.467
 0 
LINE
 8 
0
 62 
 7 
 10 
3.835
 20 
0.467
 11 
3.835
 21 
0.562
 0 
LINE
 8 
0
 62 
 7 
 10 
3.735
 20 
0.722
 11 
3.765
 21 
0.722
 0 
LINE
 8 
0
 62 
 7 
 10 
3.765
 20 
0.722
 11 
3.765
 21 
0.627
 0 
LINE
 8 
0
 62 
 7 
 10 
3.765
 20 
0.627
 11 
3.735
 21 
0.627
 0 
LINE
 8 
0
 62 
 7 
 10 
3.735
 20 
0.627
 11 
3.735
 21 
0.722
 0 
LINE
 8 
0
 62 
 7 
 10 
3.733
 20 
0.625
 11 
3.758
 21 
0.625
 0 
LINE
 8 
0
 62 
 7 
 10 
3.758
 20 
0.625
 11 
3.758
 21 
0.583
 0 
LINE
 8 
0
 62 
 7 
 10 
3.758
 20 
0.583
 11 
3.75
 21 
0.575
 0 
LINE
 8 
0
 62 
 7 
 10 
3.75
 20 
0.575
 11 
3.733
 21 
0.575
 0 
LINE
 8 
0
 62 
 7 
 10 
3.733
 20 
0.575
 11 
3.725
 21 
0.583
 0 
LINE
 8 
0
 62 
 7 
 10 
3.775
 20 
0.617
 11 
3.783
 21 
0.625
 0 
LINE
 8 
0
 62 
 7 
 10 
3.783
 20 
0.625
 11 
3.8
 21 
0.625
 0 
LINE
 8 
0
 62 
 7 
 10 
3.8
 20 
0.625
 11 
3.808
 21 
0.617
 0 
LINE
 8 
0
 62 
 7 
 10 
3.808
 20 
0.617
 11 
3.808
 21 
0.608
 0 
LINE
 8 
0
 62 
 7 
 10 
3.808
 20 
0.608
 11 
3.8
 21 
0.6
 0 
LINE
 8 
0
 62 
 7 
 10 
3.8
 20 
0.6
 11 
3.783
 21 
0.6
 0 
LINE
 8 
0
 62 
 7 
 10 
3.783
 20 
0.6
 11 
3.775
 21 
0.592
 0 
LINE
 8 
0
 62 
 7 
 10 
3.775
 20 
0.592
 11 
3.775
 21 
0.575
 0 
LINE
 8 
0
 62 
 7 
 10 
3.775
 20 
0.575
 11 
3.808
 21 
0.575
 0 
LINE
 8 
0
 62 
 7 
 10 
3.833
 20 
0.6
 11 
3.825
 21 
0.608
 0 
LINE
 8 
0
 62 
 7 
 10 
3.825
 20 
0.608
 11 
3.825
 21 
0.617
 0 
LINE
 8 
0
 62 
 7 
 10 
3.825
 20 
0.617
 11 
3.833
 21 
0.625
 0 
LINE
 8 
0
 62 
 7 
 10 
3.833
 20 
0.625
 11 
3.85
 21 
0.625
 0 
LINE
 8 
0
 62 
 7 
 10 
3.85
 20 
0.625
 11 
3.858
 21 
0.617
 0 
LINE
 8 
0
 62 
 7 
 10 
3.858
 20 
0.617
 11 
3.858
 21 
0.608
 0 
LINE
 8 
0
 62 
 7 
 10 
3.858
 20 
0.608
 11 
3.85
 21 
0.6
 0 
LINE
 8 
0
 62 
 7 
 10 
3.85
 20 
0.6
 11 
3.833
 21 
0.6
 0 
LINE
 8 
0
 62 
 7 
 10 
3.833
 20 
0.6
 11 
3.825
 21 
0.592
 0 
LINE
 8 
0
 62 
 7 
 10 
3.825
 20 
0.592
 11 
3.825
 21 
0.583
 0 
LINE
 8 
0
 62 
 7 
 10 
3.825
 20 
0.583
 11 
3.833
 21 
0.575
 0 
LINE
 8 
0
 62 
 7 
 10 
3.833
 20 
0.575
 11 
3.85
 21 
0.575
 0 
LINE
 8 
0
 62 
 7 
 10 
3.85
 20 
0.575
 11 
3.858
 21 
0.583
 0 
LINE
 8 
0
 62 
 7 
 10 
3.858
 20 
0.583
 11 
3.858
 21 
0.592
 0 
LINE
 8 
0
 62 
 7 
 10 
3.858
 20 
0.592
 11 
3.85
 21 
0.6
 0 
LINE
 8 
0
 62 
 7 
 10 
3.085
 20 
0.722
 11 
3.115
 21 
0.722
 0 
LINE
 8 
0
 62 
 7 
 10 
3.115
 20 
0.722
 11 
3.115
 21 
0.627
 0 
LINE
 8 
0
 62 
 7 
 10 
3.115
 20 
0.627
 11 
3.085
 21 
0.627
 0 
LINE
 8 
0
 62 
 7 
 10 
3.085
 20 
0.627
 11 
3.085
 21 
0.722
 0 
LINE
 8 
0
 62 
 7 
 10 
3.135
 20 
0.722
 11 
3.165
 21 
0.722
 0 
LINE
 8 
0
 62 
 7 
 10 
3.165
 20 
0.722
 11 
3.165
 21 
0.627
 0 
LINE
 8 
0
 62 
 7 
 10 
3.165
 20 
0.627
 11 
3.135
 21 
0.627
 0 
LINE
 8 
0
 62 
 7 
 10 
3.135
 20 
0.627
 11 
3.135
 21 
0.722
 0 
LINE
 8 
0
 62 
 7 
 10 
3.185
 20 
0.722
 11 
3.215
 21 
0.722
 0 
LINE
 8 
0
 62 
 7 
 10 
3.215
 20 
0.722
 11 
3.215
 21 
0.627
 0 
LINE
 8 
0
 62 
 7 
 10 
3.215
 20 
0.627
 11 
3.185
 21 
0.627
 0 
LINE
 8 
0
 62 
 7 
 10 
3.185
 20 
0.627
 11 
3.185
 21 
0.722
 0 
LINE
 8 
0
 62 
 7 
 10 
2.985
 20 
0.722
 11 
3.015
 21 
0.722
 0 
LINE
 8 
0
 62 
 7 
 10 
3.015
 20 
0.722
 11 
3.015
 21 
0.627
 0 
LINE
 8 
0
 62 
 7 
 10 
3.015
 20 
0.627
 11 
2.985
 21 
0.627
 0 
LINE
 8 
0
 62 
 7 
 10 
2.985
 20 
0.627
 11 
2.985
 21 
0.722
 0 
LINE
 8 
0
 62 
 7 
 10 
2.985
 20 
0.562
 11 
3.015
 21 
0.562
 0 
LINE
 8 
0
 62 
 7 
 10 
3.015
 20 
0.562
 11 
3.015
 21 
0.467
 0 
LINE
 8 
0
 62 
 7 
 10 
3.015
 20 
0.467
 11 
2.985
 21 
0.467
 0 
LINE
 8 
0
 62 
 7 
 10 
2.985
 20 
0.467
 11 
2.985
 21 
0.562
 0 
LINE
 8 
0
 62 
 7 
 10 
1.25
 20 
4.0
 11 
1.25
 21 
0.0
 0 
LINE
 8 
0
 62 
 7 
 10 
4.25
 20 
4.0
 11 
4.25
 21 
0.0
 0 
LINE
 8 
0
 62 
 7 
 10 
3.185
 20 
0.562
 11 
3.215
 21 
0.562
 0 
LINE
 8 
0
 62 
 7 
 10 
3.215
 20 
0.562
 11 
3.215
 21 
0.467
 0 
LINE
 8 
0
 62 
 7 
 10 
3.215
 20 
0.467
 11 
3.185
 21 
0.467
 0 
LINE
 8 
0
 62 
 7 
 10 
3.185
 20 
0.467
 11 
3.185
 21 
0.562
 0 
LINE
 8 
0
 62 
 7 
 10 
3.035
 20 
0.562
 11 
3.065
 21 
0.562
 0 
LINE
 8 
0
 62 
 7 
 10 
3.065
 20 
0.562
 11 
3.065
 21 
0.467
 0 
LINE
 8 
0
 62 
 7 
 10 
3.065
 20 
0.467
 11 
3.035
 21 
0.467
 0 
LINE
 8 
0
 62 
 7 
 10 
3.035
 20 
0.467
 11 
3.035
 21 
0.562
 0 
LINE
 8 
0
 62 
 7 
 10 
3.085
 20 
0.562
 11 
3.115
 21 
0.562
 0 
LINE
 8 
0
 62 
 7 
 10 
3.115
 20 
0.562
 11 
3.115
 21 
0.467
 0 
LINE
 8 
0
 62 
 7 
 10 
3.115
 20 
0.467
 11 
3.085
 21 
0.467
 0 
LINE
 8 
0
 62 
 7 
 10 
3.085
 20 
0.467
 11 
3.085
 21 
0.562
 0 
LINE
 8 
0
 62 
 7 
 10 
3.135
 20 
0.562
 11 
3.165
 21 
0.562
 0 
LINE
 8 
0
 62 
 7 
 10 
3.165
 20 
0.562
 11 
3.165
 21 
0.467
 0 
LINE
 8 
0
 62 
 7 
 10 
3.165
 20 
0.467
 11 
3.135
 21 
0.467
 0 
LINE
 8 
0
 62 
 7 
 10 
3.135
 20 
0.467
 11 
3.135
 21 
0.562
 0 
LINE
 8 
0
 62 
 7 
 10 
2.985
 20 
2.762
 11 
3.015
 21 
2.762
 0 
LINE
 8 
0
 62 
 7 
 10 
3.015
 20 
2.762
 11 
3.015
 21 
2.667
 0 
LINE
 8 
0
 62 
 7 
 10 
3.015
 20 
2.667
 11 
2.985
 21 
2.667
 0 
LINE
 8 
0
 62 
 7 
 10 
2.985
 20 
2.667
 11 
2.985
 21 
2.762
 0 
LINE
 8 
0
 62 
 7 
 10 
3.185
 20 
2.762
 11 
3.215
 21 
2.762
 0 
LINE
 8 
0
 62 
 7 
 10 
3.215
 20 
2.762
 11 
3.215
 21 
2.667
 0 
LINE
 8 
0
 62 
 7 
 10 
3.215
 20 
2.667
 11 
3.185
 21 
2.667
 0 
LINE
 8 
0
 62 
 7 
 10 
3.185
 20 
2.667
 11 
3.185
 21 
2.762
 0 
LINE
 8 
0
 62 
 7 
 10 
3.035
 20 
2.762
 11 
3.065
 21 
2.762
 0 
LINE
 8 
0
 62 
 7 
 10 
3.065
 20 
2.762
 11 
3.065
 21 
2.667
 0 
LINE
 8 
0
 62 
 7 
 10 
3.065
 20 
2.667
 11 
3.035
 21 
2.667
 0 
LINE
 8 
0
 62 
 7 
 10 
3.035
 20 
2.667
 11 
3.035
 21 
2.762
 0 
LINE
 8 
0
 62 
 7 
 10 
3.085
 20 
2.762
 11 
3.115
 21 
2.762
 0 
LINE
 8 
0
 62 
 7 
 10 
3.115
 20 
2.762
 11 
3.115
 21 
2.667
 0 
LINE
 8 
0
 62 
 7 
 10 
3.115
 20 
2.667
 11 
3.085
 21 
2.667
 0 
LINE
 8 
0
 62 
 7 
 10 
3.085
 20 
2.667
 11 
3.085
 21 
2.762
 0 
LINE
 8 
0
 62 
 7 
 10 
3.135
 20 
2.762
 11 
3.165
 21 
2.762
 0 
LINE
 8 
0
 62 
 7 
 10 
3.165
 20 
2.762
 11 
3.165
 21 
2.667
 0 
LINE
 8 
0
 62 
 7 
 10 
3.165
 20 
2.667
 11 
3.135
 21 
2.667
 0 
LINE
 8 
0
 62 
 7 
 10 
3.135
 20 
2.667
 11 
3.135
 21 
2.762
 0 
LINE
 8 
0
 62 
 7 
 10 
3.035
 20 
2.922
 11 
3.065
 21 
2.922
 0 
LINE
 8 
0
 62 
 7 
 10 
3.065
 20 
2.922
 11 
3.065
 21 
2.827
 0 
LINE
 8 
0
 62 
 7 
 10 
3.065
 20 
2.827
 11 
3.035
 21 
2.827
 0 
LINE
 8 
0
 62 
 7 
 10 
3.035
 20 
2.827
 11 
3.035
 21 
2.922
 0 
LINE
 8 
0
 62 
 7 
 10 
1.658
 20 
3.425
 11 
1.683
 21 
3.425
 0 
LINE
 8 
0
 62 
 7 
 10 
1.683
 20 
3.425
 11 
1.683
 21 
3.383
 0 
LINE
 8 
0
 62 
 7 
 10 
1.683
 20 
3.383
 11 
1.675
 21 
3.375
 0 
LINE
 8 
0
 62 
 7 
 10 
1.675
 20 
3.375
 11 
1.658
 21 
3.375
 0 
LINE
 8 
0
 62 
 7 
 10 
1.658
 20 
3.375
 11 
1.65
 21 
3.383
 0 
LINE
 8 
0
 62 
 7 
 10 
1.733
 20 
3.425
 11 
1.7
 21 
3.425
 0 
LINE
 8 
0
 62 
 7 
 10 
1.7
 20 
3.425
 11 
1.7
 21 
3.408
 0 
LINE
 8 
0
 62 
 7 
 10 
1.7
 20 
3.408
 11 
1.725
 21 
3.408
 0 
LINE
 8 
0
 62 
 7 
 10 
1.725
 20 
3.408
 11 
1.733
 21 
3.4
 0 
LINE
 8 
0
 62 
 7 
 10 
1.733
 20 
3.4
 11 
1.733
 21 
3.383
 0 
LINE
 8 
0
 62 
 7 
 10 
1.733
 20 
3.383
 11 
1.725
 21 
3.375
 0 
LINE
 8 
0
 62 
 7 
 10 
1.725
 20 
3.375
 11 
1.708
 21 
3.375
 0 
LINE
 8 
0
 62 
 7 
 10 
1.708
 20 
3.375
 11 
1.7
 21 
3.383
 0 
LINE
 8 
0
 62 
 7 
 10 
2.385
 20 
3.522
 11 
2.415
 21 
3.522
 0 
LINE
 8 
0
 62 
 7 
 10 
2.415
 20 
3.522
 11 
2.415
 21 
3.427
 0 
LINE
 8 
0
 62 
 7 
 10 
2.415
 20 
3.427
 11 
2.385
 21 
3.427
 0 
LINE
 8 
0
 62 
 7 
 10 
2.385
 20 
3.427
 11 
2.385
 21 
3.522
 0 
LINE
 8 
0
 62 
 7 
 10 
2.435
 20 
3.522
 11 
2.465
 21 
3.522
 0 
LINE
 8 
0
 62 
 7 
 10 
2.465
 20 
3.522
 11 
2.465
 21 
3.427
 0 
LINE
 8 
0
 62 
 7 
 10 
2.465
 20 
3.427
 11 
2.435
 21 
3.427
 0 
LINE
 8 
0
 62 
 7 
 10 
2.435
 20 
3.427
 11 
2.435
 21 
3.522
 0 
LINE
 8 
0
 62 
 7 
 10 
2.485
 20 
3.522
 11 
2.515
 21 
3.522
 0 
LINE
 8 
0
 62 
 7 
 10 
2.515
 20 
3.522
 11 
2.515
 21 
3.427
 0 
LINE
 8 
0
 62 
 7 
 10 
2.515
 20 
3.427
 11 
2.485
 21 
3.427
 0 
LINE
 8 
0
 62 
 7 
 10 
2.485
 20 
3.427
 11 
2.485
 21 
3.522
 0 
LINE
 8 
0
 62 
 7 
 10 
2.285
 20 
3.522
 11 
2.315
 21 
3.522
 0 
LINE
 8 
0
 62 
 7 
 10 
2.315
 20 
3.522
 11 
2.315
 21 
3.427
 0 
LINE
 8 
0
 62 
 7 
 10 
2.315
 20 
3.427
 11 
2.285
 21 
3.427
 0 
LINE
 8 
0
 62 
 7 
 10 
2.285
 20 
3.427
 11 
2.285
 21 
3.522
 0 
LINE
 8 
0
 62 
 7 
 10 
2.285
 20 
3.362
 11 
2.315
 21 
3.362
 0 
LINE
 8 
0
 62 
 7 
 10 
2.315
 20 
3.362
 11 
2.315
 21 
3.267
 0 
LINE
 8 
0
 62 
 7 
 10 
2.315
 20 
3.267
 11 
2.285
 21 
3.267
 0 
LINE
 8 
0
 62 
 7 
 10 
2.285
 20 
3.267
 11 
2.285
 21 
3.362
 0 
LINE
 8 
0
 62 
 7 
 10 
3.035
 20 
1.822
 11 
3.065
 21 
1.822
 0 
LINE
 8 
0
 62 
 7 
 10 
3.065
 20 
1.822
 11 
3.065
 21 
1.727
 0 
LINE
 8 
0
 62 
 7 
 10 
3.065
 20 
1.727
 11 
3.035
 21 
1.727
 0 
LINE
 8 
0
 62 
 7 
 10 
3.035
 20 
1.727
 11 
3.035
 21 
1.822
 0 
LINE
 8 
0
 62 
 7 
 10 
3.033
 20 
1.725
 11 
3.058
 21 
1.725
 0 
LINE
 8 
0
 62 
 7 
 10 
3.058
 20 
1.725
 11 
3.058
 21 
1.683
 0 
LINE
 8 
0
 62 
 7 
 10 
3.058
 20 
1.683
 11 
3.05
 21 
1.675
 0 
LINE
 8 
0
 62 
 7 
 10 
3.05
 20 
1.675
 11 
3.033
 21 
1.675
 0 
LINE
 8 
0
 62 
 7 
 10 
3.033
 20 
1.675
 11 
3.025
 21 
1.683
 0 
LINE
 8 
0
 62 
 7 
 10 
3.083
 20 
1.717
 11 
3.092
 21 
1.725
 0 
LINE
 8 
0
 62 
 7 
 10 
3.092
 20 
1.725
 11 
3.092
 21 
1.675
 0 
LINE
 8 
0
 62 
 7 
 10 
3.083
 20 
1.675
 11 
3.1
 21 
1.675
 0 
LINE
 8 
0
 62 
 7 
 10 
3.158
 20 
1.708
 11 
3.15
 21 
1.7
 0 
LINE
 8 
0
 62 
 7 
 10 
3.15
 20 
1.7
 11 
3.133
 21 
1.7
 0 
LINE
 8 
0
 62 
 7 
 10 
3.133
 20 
1.7
 11 
3.125
 21 
1.708
 0 
LINE
 8 
0
 62 
 7 
 10 
3.125
 20 
1.708
 11 
3.125
 21 
1.717
 0 
LINE
 8 
0
 62 
 7 
 10 
3.125
 20 
1.717
 11 
3.133
 21 
1.725
 0 
LINE
 8 
0
 62 
 7 
 10 
3.133
 20 
1.725
 11 
3.15
 21 
1.725
 0 
LINE
 8 
0
 62 
 7 
 10 
3.15
 20 
1.725
 11 
3.158
 21 
1.717
 0 
LINE
 8 
0
 62 
 7 
 10 
3.158
 20 
1.717
 11 
3.158
 21 
1.692
 0 
LINE
 8 
0
 62 
 7 
 10 
3.158
 20 
1.692
 11 
3.142
 21 
1.675
 0 
LINE
 8 
0
 62 
 7 
 10 
3.142
 20 
1.675
 11 
3.133
 21 
1.675
 0 
LINE
 8 
0
 62 
 7 
 10 
2.385
 20 
1.822
 11 
2.415
 21 
1.822
 0 
LINE
 8 
0
 62 
 7 
 10 
2.415
 20 
1.822
 11 
2.415
 21 
1.727
 0 
LINE
 8 
0
 62 
 7 
 10 
2.415
 20 
1.727
 11 
2.385
 21 
1.727
 0 
LINE
 8 
0
 62 
 7 
 10 
2.385
 20 
1.727
 11 
2.385
 21 
1.822
 0 
LINE
 8 
0
 62 
 7 
 10 
2.435
 20 
1.822
 11 
2.465
 21 
1.822
 0 
LINE
 8 
0
 62 
 7 
 10 
2.465
 20 
1.822
 11 
2.465
 21 
1.727
 0 
LINE
 8 
0
 62 
 7 
 10 
2.465
 20 
1.727
 11 
2.435
 21 
1.727
 0 
LINE
 8 
0
 62 
 7 
 10 
2.435
 20 
1.727
 11 
2.435
 21 
1.822
 0 
LINE
 8 
0
 62 
 7 
 10 
2.485
 20 
1.822
 11 
2.515
 21 
1.822
 0 
LINE
 8 
0
 62 
 7 
 10 
2.515
 20 
1.822
 11 
2.515
 21 
1.727
 0 
LINE
 8 
0
 62 
 7 
 10 
2.515
 20 
1.727
 11 
2.485
 21 
1.727
 0 
LINE
 8 
0
 62 
 7 
 10 
2.485
 20 
1.727
 11 
2.485
 21 
1.822
 0 
LINE
 8 
0
 62 
 7 
 10 
2.285
 20 
1.822
 11 
2.315
 21 
1.822
 0 
LINE
 8 
0
 62 
 7 
 10 
2.315
 20 
1.822
 11 
2.315
 21 
1.727
 0 
LINE
 8 
0
 62 
 7 
 10 
2.315
 20 
1.727
 11 
2.285
 21 
1.727
 0 
LINE
 8 
0
 62 
 7 
 10 
2.285
 20 
1.727
 11 
2.285
 21 
1.822
 0 
LINE
 8 
0
 62 
 7 
 10 
2.285
 20 
1.662
 11 
2.315
 21 
1.662
 0 
LINE
 8 
0
 62 
 7 
 10 
2.315
 20 
1.662
 11 
2.315
 21 
1.567
 0 
LINE
 8 
0
 62 
 7 
 10 
2.315
 20 
1.567
 11 
2.285
 21 
1.567
 0 
LINE
 8 
0
 62 
 7 
 10 
2.285
 20 
1.567
 11 
2.285
 21 
1.662
 0 
LINE
 8 
0
 62 
 7 
 10 
2.485
 20 
1.662
 11 
2.515
 21 
1.662
 0 
LINE
 8 
0
 62 
 7 
 10 
2.515
 20 
1.662
 11 
2.515
 21 
1.567
 0 
LINE
 8 
0
 62 
 7 
 10 
2.515
 20 
1.567
 11 
2.485
 21 
1.567
 0 
LINE
 8 
0
 62 
 7 
 10 
2.485
 20 
1.567
 11 
2.485
 21 
1.662
 0 
LINE
 8 
0
 62 
 7 
 10 
2.335
 20 
1.662
 11 
2.365
 21 
1.662
 0 
LINE
 8 
0
 62 
 7 
 10 
2.365
 20 
1.662
 11 
2.365
 21 
1.567
 0 
LINE
 8 
0
 62 
 7 
 10 
2.365
 20 
1.567
 11 
2.335
 21 
1.567
 0 
LINE
 8 
0
 62 
 7 
 10 
2.335
 20 
1.567
 11 
2.335
 21 
1.662
 0 
LINE
 8 
0
 62 
 7 
 10 
2.385
 20 
1.662
 11 
2.415
 21 
1.662
 0 
LINE
 8 
0
 62 
 7 
 10 
2.415
 20 
1.662
 11 
2.415
 21 
1.567
 0 
LINE
 8 
0
 62 
 7 
 10 
2.415
 20 
1.567
 11 
2.385
 21 
1.567
 0 
LINE
 8 
0
 62 
 7 
 10 
2.385
 20 
1.567
 11 
2.385
 21 
1.662
 0 
LINE
 8 
0
 62 
 7 
 10 
2.435
 20 
1.662
 11 
2.465
 21 
1.662
 0 
LINE
 8 
0
 62 
 7 
 10 
2.465
 20 
1.662
 11 
2.465
 21 
1.567
 0 
LINE
 8 
0
 62 
 7 
 10 
2.465
 20 
1.567
 11 
2.435
 21 
1.567
 0 
LINE
 8 
0
 62 
 7 
 10 
2.435
 20 
1.567
 11 
2.435
 21 
1.662
 0 
LINE
 8 
0
 62 
 7 
 10 
2.335
 20 
1.822
 11 
2.365
 21 
1.822
 0 
LINE
 8 
0
 62 
 7 
 10 
2.365
 20 
1.822
 11 
2.365
 21 
1.727
 0 
LINE
 8 
0
 62 
 7 
 10 
2.365
 20 
1.727
 11 
2.335
 21 
1.727
 0 
LINE
 8 
0
 62 
 7 
 10 
2.335
 20 
1.727
 11 
2.335
 21 
1.822
 0 
LINE
 8 
0
 62 
 7 
 10 
2.333
 20 
1.725
 11 
2.358
 21 
1.725
 0 
LINE
 8 
0
 62 
 7 
 10 
2.358
 20 
1.725
 11 
2.358
 21 
1.683
 0 
LINE
 8 
0
 62 
 7 
 10 
2.358
 20 
1.683
 11 
2.35
 21 
1.675
 0 
LINE
 8 
0
 62 
 7 
 10 
2.35
 20 
1.675
 11 
2.333
 21 
1.675
 0 
LINE
 8 
0
 62 
 7 
 10 
2.333
 20 
1.675
 11 
2.325
 21 
1.683
 0 
LINE
 8 
0
 62 
 7 
 10 
2.383
 20 
1.717
 11 
2.392
 21 
1.725
 0 
LINE
 8 
0
 62 
 7 
 10 
2.392
 20 
1.725
 11 
2.392
 21 
1.675
 0 
LINE
 8 
0
 62 
 7 
 10 
2.383
 20 
1.675
 11 
2.4
 21 
1.675
 0 
LINE
 8 
0
 62 
 7 
 10 
2.433
 20 
1.7
 11 
2.425
 21 
1.708
 0 
LINE
 8 
0
 62 
 7 
 10 
2.425
 20 
1.708
 11 
2.425
 21 
1.717
 0 
LINE
 8 
0
 62 
 7 
 10 
2.425
 20 
1.717
 11 
2.433
 21 
1.725
 0 
LINE
 8 
0
 62 
 7 
 10 
2.433
 20 
1.725
 11 
2.45
 21 
1.725
 0 
LINE
 8 
0
 62 
 7 
 10 
2.45
 20 
1.725
 11 
2.458
 21 
1.717
 0 
LINE
 8 
0
 62 
 7 
 10 
2.458
 20 
1.717
 11 
2.458
 21 
1.708
 0 
LINE
 8 
0
 62 
 7 
 10 
2.458
 20 
1.708
 11 
2.45
 21 
1.7
 0 
LINE
 8 
0
 62 
 7 
 10 
2.45
 20 
1.7
 11 
2.433
 21 
1.7
 0 
LINE
 8 
0
 62 
 7 
 10 
2.433
 20 
1.7
 11 
2.425
 21 
1.692
 0 
LINE
 8 
0
 62 
 7 
 10 
2.425
 20 
1.692
 11 
2.425
 21 
1.683
 0 
LINE
 8 
0
 62 
 7 
 10 
2.425
 20 
1.683
 11 
2.433
 21 
1.675
 0 
LINE
 8 
0
 62 
 7 
 10 
2.433
 20 
1.675
 11 
2.45
 21 
1.675
 0 
LINE
 8 
0
 62 
 7 
 10 
2.45
 20 
1.675
 11 
2.458
 21 
1.683
 0 
LINE
 8 
0
 62 
 7 
 10 
2.458
 20 
1.683
 11 
2.458
 21 
1.692
 0 
LINE
 8 
0
 62 
 7 
 10 
2.458
 20 
1.692
 11 
2.45
 21 
1.7
 0 
LINE
 8 
0
 62 
 7 
 10 
1.685
 20 
1.822
 11 
1.715
 21 
1.822
 0 
LINE
 8 
0
 62 
 7 
 10 
1.715
 20 
1.822
 11 
1.715
 21 
1.727
 0 
LINE
 8 
0
 62 
 7 
 10 
1.715
 20 
1.727
 11 
1.685
 21 
1.727
 0 
LINE
 8 
0
 62 
 7 
 10 
1.685
 20 
1.727
 11 
1.685
 21 
1.822
 0 
LINE
 8 
0
 62 
 7 
 10 
1.735
 20 
1.822
 11 
1.765
 21 
1.822
 0 
LINE
 8 
0
 62 
 7 
 10 
1.765
 20 
1.822
 11 
1.765
 21 
1.727
 0 
LINE
 8 
0
 62 
 7 
 10 
1.765
 20 
1.727
 11 
1.735
 21 
1.727
 0 
LINE
 8 
0
 62 
 7 
 10 
1.735
 20 
1.727
 11 
1.735
 21 
1.822
 0 
LINE
 8 
0
 62 
 7 
 10 
1.785
 20 
1.822
 11 
1.815
 21 
1.822
 0 
LINE
 8 
0
 62 
 7 
 10 
1.815
 20 
1.822
 11 
1.815
 21 
1.727
 0 
LINE
 8 
0
 62 
 7 
 10 
1.815
 20 
1.727
 11 
1.785
 21 
1.727
 0 
LINE
 8 
0
 62 
 7 
 10 
1.785
 20 
1.727
 11 
1.785
 21 
1.822
 0 
LINE
 8 
0
 62 
 7 
 10 
1.585
 20 
1.822
 11 
1.615
 21 
1.822
 0 
LINE
 8 
0
 62 
 7 
 10 
1.615
 20 
1.822
 11 
1.615
 21 
1.727
 0 
LINE
 8 
0
 62 
 7 
 10 
1.615
 20 
1.727
 11 
1.585
 21 
1.727
 0 
LINE
 8 
0
 62 
 7 
 10 
1.585
 20 
1.727
 11 
1.585
 21 
1.822
 0 
LINE
 8 
0
 62 
 7 
 10 
1.585
 20 
1.662
 11 
1.615
 21 
1.662
 0 
LINE
 8 
0
 62 
 7 
 10 
1.615
 20 
1.662
 11 
1.615
 21 
1.567
 0 
LINE
 8 
0
 62 
 7 
 10 
1.615
 20 
1.567
 11 
1.585
 21 
1.567
 0 
LINE
 8 
0
 62 
 7 
 10 
1.585
 20 
1.567
 11 
1.585
 21 
1.662
 0 
LINE
 8 
0
 62 
 7 
 10 
1.785
 20 
1.662
 11 
1.815
 21 
1.662
 0 
LINE
 8 
0
 62 
 7 
 10 
1.815
 20 
1.662
 11 
1.815
 21 
1.567
 0 
LINE
 8 
0
 62 
 7 
 10 
1.815
 20 
1.567
 11 
1.785
 21 
1.567
 0 
LINE
 8 
0
 62 
 7 
 10 
1.785
 20 
1.567
 11 
1.785
 21 
1.662
 0 
LINE
 8 
0
 62 
 7 
 10 
1.635
 20 
1.662
 11 
1.665
 21 
1.662
 0 
LINE
 8 
0
 62 
 7 
 10 
1.665
 20 
1.662
 11 
1.665
 21 
1.567
 0 
LINE
 8 
0
 62 
 7 
 10 
1.665
 20 
1.567
 11 
1.635
 21 
1.567
 0 
LINE
 8 
0
 62 
 7 
 10 
1.635
 20 
1.567
 11 
1.635
 21 
1.662
 0 
LINE
 8 
0
 62 
 7 
 10 
3.035
 20 
0.722
 11 
3.065
 21 
0.722
 0 
LINE
 8 
0
 62 
 7 
 10 
3.065
 20 
0.722
 11 
3.065
 21 
0.627
 0 
LINE
 8 
0
 62 
 7 
 10 
3.065
 20 
0.627
 11 
3.035
 21 
0.627
 0 
LINE
 8 
0
 62 
 7 
 10 
3.035
 20 
0.627
 11 
3.035
 21 
0.722
 0 
LINE
 8 
0
 62 
 7 
 10 
3.033
 20 
0.625
 11 
3.058
 21 
0.625
 0 
LINE
 8 
0
 62 
 7 
 10 
3.058
 20 
0.625
 11 
3.058
 21 
0.583
 0 
LINE
 8 
0
 62 
 7 
 10 
3.058
 20 
0.583
 11 
3.05
 21 
0.575
 0 
LINE
 8 
0
 62 
 7 
 10 
3.05
 20 
0.575
 11 
3.033
 21 
0.575
 0 
LINE
 8 
0
 62 
 7 
 10 
3.033
 20 
0.575
 11 
3.025
 21 
0.583
 0 
LINE
 8 
0
 62 
 7 
 10 
3.075
 20 
0.617
 11 
3.083
 21 
0.625
 0 
LINE
 8 
0
 62 
 7 
 10 
3.083
 20 
0.625
 11 
3.1
 21 
0.625
 0 
LINE
 8 
0
 62 
 7 
 10 
3.1
 20 
0.625
 11 
3.108
 21 
0.617
 0 
LINE
 8 
0
 62 
 7 
 10 
3.108
 20 
0.617
 11 
3.108
 21 
0.608
 0 
LINE
 8 
0
 62 
 7 
 10 
3.108
 20 
0.608
 11 
3.1
 21 
0.6
 0 
LINE
 8 
0
 62 
 7 
 10 
3.1
 20 
0.6
 11 
3.083
 21 
0.6
 0 
LINE
 8 
0
 62 
 7 
 10 
3.083
 20 
0.6
 11 
3.075
 21 
0.592
 0 
LINE
 8 
0
 62 
 7 
 10 
3.075
 20 
0.592
 11 
3.075
 21 
0.575
 0 
LINE
 8 
0
 62 
 7 
 10 
3.075
 20 
0.575
 11 
3.108
 21 
0.575
 0 
LINE
 8 
0
 62 
 7 
 10 
3.125
 20 
0.617
 11 
3.125
 21 
0.625
 0 
LINE
 8 
0
 62 
 7 
 10 
3.125
 20 
0.625
 11 
3.158
 21 
0.625
 0 
LINE
 8 
0
 62 
 7 
 10 
3.158
 20 
0.625
 11 
3.158
 21 
0.617
 0 
LINE
 8 
0
 62 
 7 
 10 
3.158
 20 
0.617
 11 
3.133
 21 
0.592
 0 
LINE
 8 
0
 62 
 7 
 10 
3.133
 20 
0.592
 11 
3.133
 21 
0.575
 0 
LINE
 8 
0
 62 
 7 
 10 
2.385
 20 
0.722
 11 
2.415
 21 
0.722
 0 
LINE
 8 
0
 62 
 7 
 10 
2.415
 20 
0.722
 11 
2.415
 21 
0.627
 0 
LINE
 8 
0
 62 
 7 
 10 
2.415
 20 
0.627
 11 
2.385
 21 
0.627
 0 
LINE
 8 
0
 62 
 7 
 10 
2.385
 20 
0.627
 11 
2.385
 21 
0.722
 0 
LINE
 8 
0
 62 
 7 
 10 
2.435
 20 
0.722
 11 
2.465
 21 
0.722
 0 
LINE
 8 
0
 62 
 7 
 10 
2.465
 20 
0.722
 11 
2.465
 21 
0.627
 0 
LINE
 8 
0
 62 
 7 
 10 
2.465
 20 
0.627
 11 
2.435
 21 
0.627
 0 
LINE
 8 
0
 62 
 7 
 10 
2.435
 20 
0.627
 11 
2.435
 21 
0.722
 0 
LINE
 8 
0
 62 
 7 
 10 
2.485
 20 
0.722
 11 
2.515
 21 
0.722
 0 
LINE
 8 
0
 62 
 7 
 10 
2.515
 20 
0.722
 11 
2.515
 21 
0.627
 0 
LINE
 8 
0
 62 
 7 
 10 
2.515
 20 
0.627
 11 
2.485
 21 
0.627
 0 
LINE
 8 
0
 62 
 7 
 10 
2.485
 20 
0.627
 11 
2.485
 21 
0.722
 0 
LINE
 8 
0
 62 
 7 
 10 
2.285
 20 
0.722
 11 
2.315
 21 
0.722
 0 
LINE
 8 
0
 62 
 7 
 10 
2.315
 20 
0.722
 11 
2.315
 21 
0.627
 0 
LINE
 8 
0
 62 
 7 
 10 
2.315
 20 
0.627
 11 
2.285
 21 
0.627
 0 
LINE
 8 
0
 62 
 7 
 10 
2.285
 20 
0.627
 11 
2.285
 21 
0.722
 0 
LINE
 8 
0
 62 
 7 
 10 
2.285
 20 
0.562
 11 
2.315
 21 
0.562
 0 
LINE
 8 
0
 62 
 7 
 10 
2.315
 20 
0.562
 11 
2.315
 21 
0.467
 0 
LINE
 8 
0
 62 
 7 
 10 
2.315
 20 
0.467
 11 
2.285
 21 
0.467
 0 
LINE
 8 
0
 62 
 7 
 10 
2.285
 20 
0.467
 11 
2.285
 21 
0.562
 0 
LINE
 8 
0
 62 
 7 
 10 
2.485
 20 
0.562
 11 
2.515
 21 
0.562
 0 
LINE
 8 
0
 62 
 7 
 10 
2.515
 20 
0.562
 11 
2.515
 21 
0.467
 0 
LINE
 8 
0
 62 
 7 
 10 
2.515
 20 
0.467
 11 
2.485
 21 
0.467
 0 
LINE
 8 
0
 62 
 7 
 10 
2.485
 20 
0.467
 11 
2.485
 21 
0.562
 0 
LINE
 8 
0
 62 
 7 
 10 
2.335
 20 
0.562
 11 
2.365
 21 
0.562
 0 
LINE
 8 
0
 62 
 7 
 10 
2.365
 20 
0.562
 11 
2.365
 21 
0.467
 0 
LINE
 8 
0
 62 
 7 
 10 
2.365
 20 
0.467
 11 
2.335
 21 
0.467
 0 
LINE
 8 
0
 62 
 7 
 10 
2.335
 20 
0.467
 11 
2.335
 21 
0.562
 0 
LINE
 8 
0
 62 
 7 
 10 
2.385
 20 
0.562
 11 
2.415
 21 
0.562
 0 
LINE
 8 
0
 62 
 7 
 10 
2.415
 20 
0.562
 11 
2.415
 21 
0.467
 0 
LINE
 8 
0
 62 
 7 
 10 
2.415
 20 
0.467
 11 
2.385
 21 
0.467
 0 
LINE
 8 
0
 62 
 7 
 10 
2.385
 20 
0.467
 11 
2.385
 21 
0.562
 0 
LINE
 8 
0
 62 
 7 
 10 
2.435
 20 
0.562
 11 
2.465
 21 
0.562
 0 
LINE
 8 
0
 62 
 7 
 10 
2.465
 20 
0.562
 11 
2.465
 21 
0.467
 0 
LINE
 8 
0
 62 
 7 
 10 
2.465
 20 
0.467
 11 
2.435
 21 
0.467
 0 
LINE
 8 
0
 62 
 7 
 10 
2.435
 20 
0.467
 11 
2.435
 21 
0.562
 0 
LINE
 8 
0
 62 
 7 
 10 
2.335
 20 
0.722
 11 
2.365
 21 
0.722
 0 
LINE
 8 
0
 62 
 7 
 10 
2.365
 20 
0.722
 11 
2.365
 21 
0.627
 0 
LINE
 8 
0
 62 
 7 
 10 
2.365
 20 
0.627
 11 
2.335
 21 
0.627
 0 
LINE
 8 
0
 62 
 7 
 10 
2.335
 20 
0.627
 11 
2.335
 21 
0.722
 0 
LINE
 8 
0
 62 
 7 
 10 
2.333
 20 
0.625
 11 
2.358
 21 
0.625
 0 
LINE
 8 
0
 62 
 7 
 10 
2.358
 20 
0.625
 11 
2.358
 21 
0.583
 0 
LINE
 8 
0
 62 
 7 
 10 
2.358
 20 
0.583
 11 
2.35
 21 
0.575
 0 
LINE
 8 
0
 62 
 7 
 10 
2.35
 20 
0.575
 11 
2.333
 21 
0.575
 0 
LINE
 8 
0
 62 
 7 
 10 
2.333
 20 
0.575
 11 
2.325
 21 
0.583
 0 
LINE
 8 
0
 62 
 7 
 10 
2.375
 20 
0.617
 11 
2.383
 21 
0.625
 0 
LINE
 8 
0
 62 
 7 
 10 
2.383
 20 
0.625
 11 
2.4
 21 
0.625
 0 
LINE
 8 
0
 62 
 7 
 10 
2.4
 20 
0.625
 11 
2.408
 21 
0.617
 0 
LINE
 8 
0
 62 
 7 
 10 
2.408
 20 
0.617
 11 
2.408
 21 
0.608
 0 
LINE
 8 
0
 62 
 7 
 10 
2.408
 20 
0.608
 11 
2.4
 21 
0.6
 0 
LINE
 8 
0
 62 
 7 
 10 
2.4
 20 
0.6
 11 
2.383
 21 
0.6
 0 
LINE
 8 
0
 62 
 7 
 10 
2.383
 20 
0.6
 11 
2.375
 21 
0.592
 0 
LINE
 8 
0
 62 
 7 
 10 
2.375
 20 
0.592
 11 
2.375
 21 
0.575
 0 
LINE
 8 
0
 62 
 7 
 10 
2.375
 20 
0.575
 11 
2.408
 21 
0.575
 0 
LINE
 8 
0
 62 
 7 
 10 
2.45
 20 
0.625
 11 
2.442
 21 
0.625
 0 
LINE
 8 
0
 62 
 7 
 10 
2.442
 20 
0.625
 11 
2.425
 21 
0.608
 0 
LINE
 8 
0
 62 
 7 
 10 
2.425
 20 
0.608
 11 
2.425
 21 
0.583
 0 
LINE
 8 
0
 62 
 7 
 10 
2.425
 20 
0.583
 11 
2.433
 21 
0.575
 0 
LINE
 8 
0
 62 
 7 
 10 
2.433
 20 
0.575
 11 
2.45
 21 
0.575
 0 
LINE
 8 
0
 62 
 7 
 10 
2.45
 20 
0.575
 11 
2.458
 21 
0.583
 0 
LINE
 8 
0
 62 
 7 
 10 
2.458
 20 
0.583
 11 
2.458
 21 
0.592
 0 
LINE
 8 
0
 62 
 7 
 10 
2.458
 20 
0.592
 11 
2.45
 21 
0.6
 0 
LINE
 8 
0
 62 
 7 
 10 
2.45
 20 
0.6
 11 
2.433
 21 
0.6
 0 
LINE
 8 
0
 62 
 7 
 10 
2.433
 20 
0.6
 11 
2.425
 21 
0.592
 0 
LINE
 8 
0
 62 
 7 
 10 
1.685
 20 
0.722
 11 
1.715
 21 
0.722
 0 
LINE
 8 
0
 62 
 7 
 10 
1.715
 20 
0.722
 11 
1.715
 21 
0.627
 0 
LINE
 8 
0
 62 
 7 
 10 
1.715
 20 
0.627
 11 
1.685
 21 
0.627
 0 
LINE
 8 
0
 62 
 7 
 10 
1.685
 20 
0.627
 11 
1.685
 21 
0.722
 0 
LINE
 8 
0
 62 
 7 
 10 
1.735
 20 
0.722
 11 
1.765
 21 
0.722
 0 
LINE
 8 
0
 62 
 7 
 10 
1.765
 20 
0.722
 11 
1.765
 21 
0.627
 0 
LINE
 8 
0
 62 
 7 
 10 
1.765
 20 
0.627
 11 
1.735
 21 
0.627
 0 
LINE
 8 
0
 62 
 7 
 10 
1.735
 20 
0.627
 11 
1.735
 21 
0.722
 0 
LINE
 8 
0
 62 
 7 
 10 
1.785
 20 
0.722
 11 
1.815
 21 
0.722
 0 
LINE
 8 
0
 62 
 7 
 10 
1.815
 20 
0.722
 11 
1.815
 21 
0.627
 0 
LINE
 8 
0
 62 
 7 
 10 
1.815
 20 
0.627
 11 
1.785
 21 
0.627
 0 
LINE
 8 
0
 62 
 7 
 10 
1.785
 20 
0.627
 11 
1.785
 21 
0.722
 0 
LINE
 8 
0
 62 
 7 
 10 
1.585
 20 
0.722
 11 
1.615
 21 
0.722
 0 
LINE
 8 
0
 62 
 7 
 10 
1.615
 20 
0.722
 11 
1.615
 21 
0.627
 0 
LINE
 8 
0
 62 
 7 
 10 
1.615
 20 
0.627
 11 
1.585
 21 
0.627
 0 
LINE
 8 
0
 62 
 7 
 10 
1.585
 20 
0.627
 11 
1.585
 21 
0.722
 0 
LINE
 8 
0
 62 
 7 
 10 
1.585
 20 
0.562
 11 
1.615
 21 
0.562
 0 
LINE
 8 
0
 62 
 7 
 10 
1.615
 20 
0.562
 11 
1.615
 21 
0.467
 0 
LINE
 8 
0
 62 
 7 
 10 
1.615
 20 
0.467
 11 
1.585
 21 
0.467
 0 
LINE
 8 
0
 62 
 7 
 10 
1.585
 20 
0.467
 11 
1.585
 21 
0.562
 0 
LINE
 8 
0
 62 
 7 
 10 
1.785
 20 
0.562
 11 
1.815
 21 
0.562
 0 
LINE
 8 
0
 62 
 7 
 10 
1.815
 20 
0.562
 11 
1.815
 21 
0.467
 0 
LINE
 8 
0
 62 
 7 
 10 
1.815
 20 
0.467
 11 
1.785
 21 
0.467
 0 
LINE
 8 
0
 62 
 7 
 10 
1.785
 20 
0.467
 11 
1.785
 21 
0.562
 0 
LINE
 8 
0
 62 
 7 
 10 
1.635
 20 
0.562
 11 
1.665
 21 
0.562
 0 
LINE
 8 
0
 62 
 7 
 10 
1.665
 20 
0.562
 11 
1.665
 21 
0.467
 0 
LINE
 8 
0
 62 
 7 
 10 
1.665
 20 
0.467
 11 
1.635
 21 
0.467
 0 
LINE
 8 
0
 62 
 7 
 10 
1.635
 20 
0.467
 11 
1.635
 21 
0.562
 0 
LINE
 8 
0
 62 
 7 
 10 
3.033
 20 
2.825
 11 
3.058
 21 
2.825
 0 
LINE
 8 
0
 62 
 7 
 10 
3.058
 20 
2.825
 11 
3.058
 21 
2.783
 0 
LINE
 8 
0
 62 
 7 
 10 
3.058
 20 
2.783
 11 
3.05
 21 
2.775
 0 
LINE
 8 
0
 62 
 7 
 10 
3.05
 20 
2.775
 11 
3.033
 21 
2.775
 0 
LINE
 8 
0
 62 
 7 
 10 
3.033
 20 
2.775
 11 
3.025
 21 
2.783
 0 
LINE
 8 
0
 62 
 7 
 10 
3.083
 20 
2.817
 11 
3.092
 21 
2.825
 0 
LINE
 8 
0
 62 
 7 
 10 
3.092
 20 
2.825
 11 
3.092
 21 
2.775
 0 
LINE
 8 
0
 62 
 7 
 10 
3.083
 20 
2.775
 11 
3.1
 21 
2.775
 0 
LINE
 8 
0
 62 
 7 
 10 
3.133
 20 
2.817
 11 
3.142
 21 
2.825
 0 
LINE
 8 
0
 62 
 7 
 10 
3.142
 20 
2.825
 11 
3.142
 21 
2.775
 0 
LINE
 8 
0
 62 
 7 
 10 
3.133
 20 
2.775
 11 
3.15
 21 
2.775
 0 
LINE
 8 
0
 62 
 7 
 10 
3.785
 20 
2.922
 11 
3.815
 21 
2.922
 0 
LINE
 8 
0
 62 
 7 
 10 
3.815
 20 
2.922
 11 
3.815
 21 
2.827
 0 
LINE
 8 
0
 62 
 7 
 10 
3.815
 20 
2.827
 11 
3.785
 21 
2.827
 0 
LINE
 8 
0
 62 
 7 
 10 
3.785
 20 
2.827
 11 
3.785
 21 
2.922
 0 
LINE
 8 
0
 62 
 7 
 10 
3.835
 20 
2.922
 11 
3.865
 21 
2.922
 0 
LINE
 8 
0
 62 
 7 
 10 
3.865
 20 
2.922
 11 
3.865
 21 
2.827
 0 
LINE
 8 
0
 62 
 7 
 10 
3.865
 20 
2.827
 11 
3.835
 21 
2.827
 0 
LINE
 8 
0
 62 
 7 
 10 
3.835
 20 
2.827
 11 
3.835
 21 
2.922
 0 
LINE
 8 
0
 62 
 7 
 10 
3.885
 20 
2.922
 11 
3.915
 21 
2.922
 0 
LINE
 8 
0
 62 
 7 
 10 
3.915
 20 
2.922
 11 
3.915
 21 
2.827
 0 
LINE
 8 
0
 62 
 7 
 10 
3.915
 20 
2.827
 11 
3.885
 21 
2.827
 0 
LINE
 8 
0
 62 
 7 
 10 
3.885
 20 
2.827
 11 
3.885
 21 
2.922
 0 
LINE
 8 
0
 62 
 7 
 10 
3.685
 20 
2.922
 11 
3.715
 21 
2.922
 0 
LINE
 8 
0
 62 
 7 
 10 
3.715
 20 
2.922
 11 
3.715
 21 
2.827
 0 
LINE
 8 
0
 62 
 7 
 10 
3.715
 20 
2.827
 11 
3.685
 21 
2.827
 0 
LINE
 8 
0
 62 
 7 
 10 
3.685
 20 
2.827
 11 
3.685
 21 
2.922
 0 
LINE
 8 
0
 62 
 7 
 10 
3.685
 20 
2.762
 11 
3.715
 21 
2.762
 0 
LINE
 8 
0
 62 
 7 
 10 
3.715
 20 
2.762
 11 
3.715
 21 
2.667
 0 
LINE
 8 
0
 62 
 7 
 10 
3.715
 20 
2.667
 11 
3.685
 21 
2.667
 0 
LINE
 8 
0
 62 
 7 
 10 
3.685
 20 
2.667
 11 
3.685
 21 
2.762
 0 
LINE
 8 
0
 62 
 7 
 10 
3.885
 20 
2.762
 11 
3.915
 21 
2.762
 0 
LINE
 8 
0
 62 
 7 
 10 
3.915
 20 
2.762
 11 
3.915
 21 
2.667
 0 
LINE
 8 
0
 62 
 7 
 10 
3.915
 20 
2.667
 11 
3.885
 21 
2.667
 0 
LINE
 8 
0
 62 
 7 
 10 
3.885
 20 
2.667
 11 
3.885
 21 
2.762
 0 
LINE
 8 
0
 62 
 7 
 10 
3.735
 20 
2.762
 11 
3.765
 21 
2.762
 0 
LINE
 8 
0
 62 
 7 
 10 
3.765
 20 
2.762
 11 
3.765
 21 
2.667
 0 
LINE
 8 
0
 62 
 7 
 10 
3.765
 20 
2.667
 11 
3.735
 21 
2.667
 0 
LINE
 8 
0
 62 
 7 
 10 
3.735
 20 
2.667
 11 
3.735
 21 
2.762
 0 
LINE
 8 
0
 62 
 7 
 10 
3.785
 20 
2.762
 11 
3.815
 21 
2.762
 0 
LINE
 8 
0
 62 
 7 
 10 
3.815
 20 
2.762
 11 
3.815
 21 
2.667
 0 
LINE
 8 
0
 62 
 7 
 10 
3.815
 20 
2.667
 11 
3.785
 21 
2.667
 0 
LINE
 8 
0
 62 
 7 
 10 
3.785
 20 
2.667
 11 
3.785
 21 
2.762
 0 
LINE
 8 
0
 62 
 7 
 10 
3.835
 20 
2.762
 11 
3.865
 21 
2.762
 0 
LINE
 8 
0
 62 
 7 
 10 
3.865
 20 
2.762
 11 
3.865
 21 
2.667
 0 
LINE
 8 
0
 62 
 7 
 10 
3.865
 20 
2.667
 11 
3.835
 21 
2.667
 0 
LINE
 8 
0
 62 
 7 
 10 
3.835
 20 
2.667
 11 
3.835
 21 
2.762
 0 
LINE
 8 
0
 62 
 7 
 10 
2.485
 20 
3.362
 11 
2.515
 21 
3.362
 0 
LINE
 8 
0
 62 
 7 
 10 
2.515
 20 
3.362
 11 
2.515
 21 
3.267
 0 
LINE
 8 
0
 62 
 7 
 10 
2.515
 20 
3.267
 11 
2.485
 21 
3.267
 0 
LINE
 8 
0
 62 
 7 
 10 
2.485
 20 
3.267
 11 
2.485
 21 
3.362
 0 
LINE
 8 
0
 62 
 7 
 10 
2.335
 20 
3.362
 11 
2.365
 21 
3.362
 0 
LINE
 8 
0
 62 
 7 
 10 
2.365
 20 
3.362
 11 
2.365
 21 
3.267
 0 
LINE
 8 
0
 62 
 7 
 10 
2.365
 20 
3.267
 11 
2.335
 21 
3.267
 0 
LINE
 8 
0
 62 
 7 
 10 
2.335
 20 
3.267
 11 
2.335
 21 
3.362
 0 
LINE
 8 
0
 62 
 7 
 10 
2.385
 20 
3.362
 11 
2.415
 21 
3.362
 0 
LINE
 8 
0
 62 
 7 
 10 
2.415
 20 
3.362
 11 
2.415
 21 
3.267
 0 
LINE
 8 
0
 62 
 7 
 10 
2.415
 20 
3.267
 11 
2.385
 21 
3.267
 0 
LINE
 8 
0
 62 
 7 
 10 
2.385
 20 
3.267
 11 
2.385
 21 
3.362
 0 
LINE
 8 
0
 62 
 7 
 10 
2.435
 20 
3.362
 11 
2.465
 21 
3.362
 0 
LINE
 8 
0
 62 
 7 
 10 
2.465
 20 
3.362
 11 
2.465
 21 
3.267
 0 
LINE
 8 
0
 62 
 7 
 10 
2.465
 20 
3.267
 11 
2.435
 21 
3.267
 0 
LINE
 8 
0
 62 
 7 
 10 
2.435
 20 
3.267
 11 
2.435
 21 
3.362
 0 
LINE
 8 
0
 62 
 7 
 10 
2.335
 20 
3.522
 11 
2.365
 21 
3.522
 0 
LINE
 8 
0
 62 
 7 
 10 
2.365
 20 
3.522
 11 
2.365
 21 
3.427
 0 
LINE
 8 
0
 62 
 7 
 10 
2.365
 20 
3.427
 11 
2.335
 21 
3.427
 0 
LINE
 8 
0
 62 
 7 
 10 
2.335
 20 
3.427
 11 
2.335
 21 
3.522
 0 
LINE
 8 
0
 62 
 7 
 10 
2.358
 20 
3.425
 11 
2.383
 21 
3.425
 0 
LINE
 8 
0
 62 
 7 
 10 
2.383
 20 
3.425
 11 
2.383
 21 
3.383
 0 
LINE
 8 
0
 62 
 7 
 10 
2.383
 20 
3.383
 11 
2.375
 21 
3.375
 0 
LINE
 8 
0
 62 
 7 
 10 
2.375
 20 
3.375
 11 
2.358
 21 
3.375
 0 
LINE
 8 
0
 62 
 7 
 10 
2.358
 20 
3.375
 11 
2.35
 21 
3.383
 0 
LINE
 8 
0
 62 
 7 
 10 
2.425
 20 
3.425
 11 
2.417
 21 
3.425
 0 
LINE
 8 
0
 62 
 7 
 10 
2.417
 20 
3.425
 11 
2.4
 21 
3.408
 0 
LINE
 8 
0
 62 
 7 
 10 
2.4
 20 
3.408
 11 
2.4
 21 
3.383
 0 
LINE
 8 
0
 62 
 7 
 10 
2.4
 20 
3.383
 11 
2.408
 21 
3.375
 0 
LINE
 8 
0
 62 
 7 
 10 
2.408
 20 
3.375
 11 
2.425
 21 
3.375
 0 
LINE
 8 
0
 62 
 7 
 10 
2.425
 20 
3.375
 11 
2.433
 21 
3.383
 0 
LINE
 8 
0
 62 
 7 
 10 
2.433
 20 
3.383
 11 
2.433
 21 
3.392
 0 
LINE
 8 
0
 62 
 7 
 10 
2.433
 20 
3.392
 11 
2.425
 21 
3.4
 0 
LINE
 8 
0
 62 
 7 
 10 
2.425
 20 
3.4
 11 
2.408
 21 
3.4
 0 
LINE
 8 
0
 62 
 7 
 10 
2.408
 20 
3.4
 11 
2.4
 21 
3.392
 0 
LINE
 8 
0
 62 
 7 
 10 
3.085
 20 
3.522
 11 
3.115
 21 
3.522
 0 
LINE
 8 
0
 62 
 7 
 10 
3.115
 20 
3.522
 11 
3.115
 21 
3.427
 0 
LINE
 8 
0
 62 
 7 
 10 
3.115
 20 
3.427
 11 
3.085
 21 
3.427
 0 
LINE
 8 
0
 62 
 7 
 10 
3.085
 20 
3.427
 11 
3.085
 21 
3.522
 0 
LINE
 8 
0
 62 
 7 
 10 
3.135
 20 
3.522
 11 
3.165
 21 
3.522
 0 
LINE
 8 
0
 62 
 7 
 10 
3.165
 20 
3.522
 11 
3.165
 21 
3.427
 0 
LINE
 8 
0
 62 
 7 
 10 
3.165
 20 
3.427
 11 
3.135
 21 
3.427
 0 
LINE
 8 
0
 62 
 7 
 10 
3.135
 20 
3.427
 11 
3.135
 21 
3.522
 0 
LINE
 8 
0
 62 
 7 
 10 
3.185
 20 
3.522
 11 
3.215
 21 
3.522
 0 
LINE
 8 
0
 62 
 7 
 10 
3.215
 20 
3.522
 11 
3.215
 21 
3.427
 0 
LINE
 8 
0
 62 
 7 
 10 
3.215
 20 
3.427
 11 
3.185
 21 
3.427
 0 
LINE
 8 
0
 62 
 7 
 10 
3.185
 20 
3.427
 11 
3.185
 21 
3.522
 0 
LINE
 8 
0
 62 
 7 
 10 
2.985
 20 
3.522
 11 
3.015
 21 
3.522
 0 
LINE
 8 
0
 62 
 7 
 10 
3.015
 20 
3.522
 11 
3.015
 21 
3.427
 0 
LINE
 8 
0
 62 
 7 
 10 
3.015
 20 
3.427
 11 
2.985
 21 
3.427
 0 
LINE
 8 
0
 62 
 7 
 10 
2.985
 20 
3.427
 11 
2.985
 21 
3.522
 0 
LINE
 8 
0
 62 
 7 
 10 
1.685
 20 
1.662
 11 
1.715
 21 
1.662
 0 
LINE
 8 
0
 62 
 7 
 10 
1.715
 20 
1.662
 11 
1.715
 21 
1.567
 0 
LINE
 8 
0
 62 
 7 
 10 
1.715
 20 
1.567
 11 
1.685
 21 
1.567
 0 
LINE
 8 
0
 62 
 7 
 10 
1.685
 20 
1.567
 11 
1.685
 21 
1.662
 0 
LINE
 8 
0
 62 
 7 
 10 
1.735
 20 
1.662
 11 
1.765
 21 
1.662
 0 
LINE
 8 
0
 62 
 7 
 10 
1.765
 20 
1.662
 11 
1.765
 21 
1.567
 0 
LINE
 8 
0
 62 
 7 
 10 
1.765
 20 
1.567
 11 
1.735
 21 
1.567
 0 
LINE
 8 
0
 62 
 7 
 10 
1.735
 20 
1.567
 11 
1.735
 21 
1.662
 0 
LINE
 8 
0
 62 
 7 
 10 
1.635
 20 
1.822
 11 
1.665
 21 
1.822
 0 
LINE
 8 
0
 62 
 7 
 10 
1.665
 20 
1.822
 11 
1.665
 21 
1.727
 0 
LINE
 8 
0
 62 
 7 
 10 
1.665
 20 
1.727
 11 
1.635
 21 
1.727
 0 
LINE
 8 
0
 62 
 7 
 10 
1.635
 20 
1.727
 11 
1.635
 21 
1.822
 0 
LINE
 8 
0
 62 
 7 
 10 
1.633
 20 
1.725
 11 
1.658
 21 
1.725
 0 
LINE
 8 
0
 62 
 7 
 10 
1.658
 20 
1.725
 11 
1.658
 21 
1.683
 0 
LINE
 8 
0
 62 
 7 
 10 
1.658
 20 
1.683
 11 
1.65
 21 
1.675
 0 
LINE
 8 
0
 62 
 7 
 10 
1.65
 20 
1.675
 11 
1.633
 21 
1.675
 0 
LINE
 8 
0
 62 
 7 
 10 
1.633
 20 
1.675
 11 
1.625
 21 
1.683
 0 
LINE
 8 
0
 62 
 7 
 10 
1.683
 20 
1.717
 11 
1.692
 21 
1.725
 0 
LINE
 8 
0
 62 
 7 
 10 
1.692
 20 
1.725
 11 
1.692
 21 
1.675
 0 
LINE
 8 
0
 62 
 7 
 10 
1.683
 20 
1.675
 11 
1.7
 21 
1.675
 0 
LINE
 8 
0
 62 
 7 
 10 
1.725
 20 
1.717
 11 
1.725
 21 
1.725
 0 
LINE
 8 
0
 62 
 7 
 10 
1.725
 20 
1.725
 11 
1.758
 21 
1.725
 0 
LINE
 8 
0
 62 
 7 
 10 
1.758
 20 
1.725
 11 
1.758
 21 
1.717
 0 
LINE
 8 
0
 62 
 7 
 10 
1.758
 20 
1.717
 11 
1.733
 21 
1.692
 0 
LINE
 8 
0
 62 
 7 
 10 
1.733
 20 
1.692
 11 
1.733
 21 
1.675
 0 
LINE
 8 
0
 62 
 7 
 10 
1.685
 20 
0.562
 11 
1.715
 21 
0.562
 0 
LINE
 8 
0
 62 
 7 
 10 
1.715
 20 
0.562
 11 
1.715
 21 
0.467
 0 
LINE
 8 
0
 62 
 7 
 10 
1.715
 20 
0.467
 11 
1.685
 21 
0.467
 0 
LINE
 8 
0
 62 
 7 
 10 
1.685
 20 
0.467
 11 
1.685
 21 
0.562
 0 
LINE
 8 
0
 62 
 7 
 10 
1.735
 20 
0.562
 11 
1.765
 21 
0.562
 0 
LINE
 8 
0
 62 
 7 
 10 
1.765
 20 
0.562
 11 
1.765
 21 
0.467
 0 
LINE
 8 
0
 62 
 7 
 10 
1.765
 20 
0.467
 11 
1.735
 21 
0.467
 0 
LINE
 8 
0
 62 
 7 
 10 
1.735
 20 
0.467
 11 
1.735
 21 
0.562
 0 
LINE
 8 
0
 62 
 7 
 10 
1.635
 20 
0.722
 11 
1.665
 21 
0.722
 0 
LINE
 8 
0
 62 
 7 
 10 
1.665
 20 
0.722
 11 
1.665
 21 
0.627
 0 
LINE
 8 
0
 62 
 7 
 10 
1.665
 20 
0.627
 11 
1.635
 21 
0.627
 0 
LINE
 8 
0
 62 
 7 
 10 
1.635
 20 
0.627
 11 
1.635
 21 
0.722
 0 
LINE
 8 
0
 62 
 7 
 10 
1.633
 20 
0.625
 11 
1.658
 21 
0.625
 0 
LINE
 8 
0
 62 
 7 
 10 
1.658
 20 
0.625
 11 
1.658
 21 
0.583
 0 
LINE
 8 
0
 62 
 7 
 10 
1.658
 20 
0.583
 11 
1.65
 21 
0.575
 0 
LINE
 8 
0
 62 
 7 
 10 
1.65
 20 
0.575
 11 
1.633
 21 
0.575
 0 
LINE
 8 
0
 62 
 7 
 10 
1.633
 20 
0.575
 11 
1.625
 21 
0.583
 0 
LINE
 8 
0
 62 
 7 
 10 
1.675
 20 
0.617
 11 
1.683
 21 
0.625
 0 
LINE
 8 
0
 62 
 7 
 10 
1.683
 20 
0.625
 11 
1.7
 21 
0.625
 0 
LINE
 8 
0
 62 
 7 
 10 
1.7
 20 
0.625
 11 
1.708
 21 
0.617
 0 
LINE
 8 
0
 62 
 7 
 10 
1.708
 20 
0.617
 11 
1.708
 21 
0.608
 0 
LINE
 8 
0
 62 
 7 
 10 
1.708
 20 
0.608
 11 
1.7
 21 
0.6
 0 
LINE
 8 
0
 62 
 7 
 10 
1.7
 20 
0.6
 11 
1.683
 21 
0.6
 0 
LINE
 8 
0
 62 
 7 
 10 
1.683
 20 
0.6
 11 
1.675
 21 
0.592
 0 
LINE
 8 
0
 62 
 7 
 10 
1.675
 20 
0.592
 11 
1.675
 21 
0.575
 0 
LINE
 8 
0
 62 
 7 
 10 
1.675
 20 
0.575
 11 
1.708
 21 
0.575
 0 
LINE
 8 
0
 62 
 7 
 10 
1.758
 20 
0.625
 11 
1.725
 21 
0.625
 0 
LINE
 8 
0
 62 
 7 
 10 
1.725
 20 
0.625
 11 
1.725
 21 
0.608
 0 
LINE
 8 
0
 62 
 7 
 10 
1.725
 20 
0.608
 11 
1.75
 21 
0.608
 0 
LINE
 8 
0
 62 
 7 
 10 
1.75
 20 
0.608
 11 
1.758
 21 
0.6
 0 
LINE
 8 
0
 62 
 7 
 10 
1.758
 20 
0.6
 11 
1.758
 21 
0.583
 0 
LINE
 8 
0
 62 
 7 
 10 
1.758
 20 
0.583
 11 
1.75
 21 
0.575
 0 
LINE
 8 
0
 62 
 7 
 10 
1.75
 20 
0.575
 11 
1.733
 21 
0.575
 0 
LINE
 8 
0
 62 
 7 
 10 
1.733
 20 
0.575
 11 
1.725
 21 
0.583
 0 
LINE
 8 
0
 62 
 7 
 10 
3.465
 20 
3.262
 11 
3.535
 21 
3.262
 0 
LINE
 8 
0
 62 
 7 
 10 
3.535
 20 
3.262
 11 
3.535
 21 
3.027
 0 
LINE
 8 
0
 62 
 7 
 10 
3.535
 20 
3.027
 11 
3.465
 21 
3.027
 0 
LINE
 8 
0
 62 
 7 
 10 
3.465
 20 
3.027
 11 
3.465
 21 
3.262
 0 
LINE
 8 
0
 62 
 7 
 10 
3.365
 20 
3.142
 11 
3.435
 21 
3.142
 0 
LINE
 8 
0
 62 
 7 
 10 
3.435
 20 
3.142
 11 
3.435
 21 
2.907
 0 
LINE
 8 
0
 62 
 7 
 10 
3.435
 20 
2.907
 11 
3.365
 21 
2.907
 0 
LINE
 8 
0
 62 
 7 
 10 
3.365
 20 
2.907
 11 
3.365
 21 
3.142
 0 
LINE
 8 
0
 62 
 7 
 10 
3.735
 20 
2.922
 11 
3.765
 21 
2.922
 0 
LINE
 8 
0
 62 
 7 
 10 
3.765
 20 
2.922
 11 
3.765
 21 
2.827
 0 
LINE
 8 
0
 62 
 7 
 10 
3.765
 20 
2.827
 11 
3.735
 21 
2.827
 0 
LINE
 8 
0
 62 
 7 
 10 
3.735
 20 
2.827
 11 
3.735
 21 
2.922
 0 
LINE
 8 
0
 62 
 7 
 10 
3.733
 20 
2.825
 11 
3.758
 21 
2.825
 0 
LINE
 8 
0
 62 
 7 
 10 
3.758
 20 
2.825
 11 
3.758
 21 
2.783
 0 
LINE
 8 
0
 62 
 7 
 10 
3.758
 20 
2.783
 11 
3.75
 21 
2.775
 0 
LINE
 8 
0
 62 
 7 
 10 
3.75
 20 
2.775
 11 
3.733
 21 
2.775
 0 
LINE
 8 
0
 62 
 7 
 10 
3.733
 20 
2.775
 11 
3.725
 21 
2.783
 0 
LINE
 8 
0
 62 
 7 
 10 
3.783
 20 
2.817
 11 
3.792
 21 
2.825
 0 
LINE
 8 
0
 62 
 7 
 10 
3.792
 20 
2.825
 11 
3.792
 21 
2.775
 0 
LINE
 8 
0
 62 
 7 
 10 
3.783
 20 
2.775
 11 
3.8
 21 
2.775
 0 
LINE
 8 
0
 62 
 7 
 10 
3.825
 20 
2.817
 11 
3.833
 21 
2.825
 0 
LINE
 8 
0
 62 
 7 
 10 
3.833
 20 
2.825
 11 
3.85
 21 
2.825
 0 
LINE
 8 
0
 62 
 7 
 10 
3.85
 20 
2.825
 11 
3.858
 21 
2.817
 0 
LINE
 8 
0
 62 
 7 
 10 
3.858
 20 
2.817
 11 
3.858
 21 
2.808
 0 
LINE
 8 
0
 62 
 7 
 10 
3.858
 20 
2.808
 11 
3.85
 21 
2.8
 0 
LINE
 8 
0
 62 
 7 
 10 
3.85
 20 
2.8
 11 
3.833
 21 
2.8
 0 
LINE
 8 
0
 62 
 7 
 10 
3.833
 20 
2.8
 11 
3.825
 21 
2.792
 0 
LINE
 8 
0
 62 
 7 
 10 
3.825
 20 
2.792
 11 
3.825
 21 
2.775
 0 
LINE
 8 
0
 62 
 7 
 10 
3.825
 20 
2.775
 11 
3.858
 21 
2.775
 0 
LINE
 8 
0
 62 
 7 
 10 
3.185
 20 
3.215
 11 
3.215
 21 
3.215
 0 
LINE
 8 
0
 62 
 7 
 10 
3.215
 20 
3.215
 11 
3.215
 21 
3.185
 0 
LINE
 8 
0
 62 
 7 
 10 
3.215
 20 
3.185
 11 
3.185
 21 
3.185
 0 
LINE
 8 
0
 62 
 7 
 10 
3.185
 20 
3.185
 11 
3.185
 21 
3.215
 0 
LINE
 8 
0
 62 
 7 
 10 
3.24
 20 
3.215
 11 
3.27
 21 
3.215
 0 
LINE
 8 
0
 62 
 7 
 10 
3.27
 20 
3.215
 11 
3.27
 21 
3.185
 0 
LINE
 8 
0
 62 
 7 
 10 
3.27
 20 
3.185
 11 
3.24
 21 
3.185
 0 
LINE
 8 
0
 62 
 7 
 10 
3.24
 20 
3.185
 11 
3.24
 21 
3.215
 0 
LINE
 8 
0
 62 
 7 
 10 
3.21
 20 
3.235
 11 
3.166
 21 
3.235
 0 
LINE
 8 
0
 62 
 7 
 10 
3.166
 20 
3.235
 11 
3.166
 21 
3.165
 0 
LINE
 8 
0
 62 
 7 
 10 
2.985
 20 
3.362
 11 
3.015
 21 
3.362
 0 
LINE
 8 
0
 62 
 7 
 10 
3.015
 20 
3.362
 11 
3.015
 21 
3.267
 0 
LINE
 8 
0
 62 
 7 
 10 
3.015
 20 
3.267
 11 
2.985
 21 
3.267
 0 
LINE
 8 
0
 62 
 7 
 10 
2.985
 20 
3.267
 11 
2.985
 21 
3.362
 0 
LINE
 8 
0
 62 
 7 
 10 
3.185
 20 
3.362
 11 
3.215
 21 
3.362
 0 
LINE
 8 
0
 62 
 7 
 10 
3.215
 20 
3.362
 11 
3.215
 21 
3.267
 0 
LINE
 8 
0
 62 
 7 
 10 
3.215
 20 
3.267
 11 
3.185
 21 
3.267
 0 
LINE
 8 
0
 62 
 7 
 10 
3.185
 20 
3.267
 11 
3.185
 21 
3.362
 0 
LINE
 8 
0
 62 
 7 
 10 
3.035
 20 
3.362
 11 
3.065
 21 
3.362
 0 
LINE
 8 
0
 62 
 7 
 10 
3.065
 20 
3.362
 11 
3.065
 21 
3.267
 0 
LINE
 8 
0
 62 
 7 
 10 
3.065
 20 
3.267
 11 
3.035
 21 
3.267
 0 
LINE
 8 
0
 62 
 7 
 10 
3.035
 20 
3.267
 11 
3.035
 21 
3.362
 0 
LINE
 8 
0
 62 
 7 
 10 
3.085
 20 
3.362
 11 
3.115
 21 
3.362
 0 
LINE
 8 
0
 62 
 7 
 10 
3.115
 20 
3.362
 11 
3.115
 21 
3.267
 0 
LINE
 8 
0
 62 
 7 
 10 
3.115
 20 
3.267
 11 
3.085
 21 
3.267
 0 
LINE
 8 
0
 62 
 7 
 10 
3.085
 20 
3.267
 11 
3.085
 21 
3.362
 0 
LINE
 8 
0
 62 
 7 
 10 
3.135
 20 
3.362
 11 
3.165
 21 
3.362
 0 
LINE
 8 
0
 62 
 7 
 10 
3.165
 20 
3.362
 11 
3.165
 21 
3.267
 0 
LINE
 8 
0
 62 
 7 
 10 
3.165
 20 
3.267
 11 
3.135
 21 
3.267
 0 
LINE
 8 
0
 62 
 7 
 10 
3.135
 20 
3.267
 11 
3.135
 21 
3.362
 0 
LINE
 8 
0
 62 
 7 
 10 
3.035
 20 
3.522
 11 
3.065
 21 
3.522
 0 
LINE
 8 
0
 62 
 7 
 10 
3.065
 20 
3.522
 11 
3.065
 21 
3.427
 0 
LINE
 8 
0
 62 
 7 
 10 
3.065
 20 
3.427
 11 
3.035
 21 
3.427
 0 
LINE
 8 
0
 62 
 7 
 10 
3.035
 20 
3.427
 11 
3.035
 21 
3.522
 0 
LINE
 8 
0
 62 
 7 
 10 
3.166
 20 
3.165
 11 
3.21
 21 
3.165
 0 
LINE
 8 
0
 62 
 7 
 10 
3.246
 20 
3.235
 11 
3.29
 21 
3.235
 0 
LINE
 8 
0
 62 
 7 
 10 
3.29
 20 
3.235
 11 
3.29
 21 
3.165
 0 
LINE
 8 
0
 62 
 7 
 10 
3.29
 20 
3.165
 11 
3.246
 21 
3.165
 0 
LINE
 8 
0
 62 
 7 
 10 
3.2
 20 
3.1
 11 
3.2
 21 
3.15
 0 
LINE
 8 
0
 62 
 7 
 10 
3.2
 20 
3.15
 11 
3.225
 21 
3.15
 0 
LINE
 8 
0
 62 
 7 
 10 
3.225
 20 
3.15
 11 
3.233
 21 
3.142
 0 
LINE
 8 
0
 62 
 7 
 10 
3.233
 20 
3.142
 11 
3.233
 21 
3.133
 0 
LINE
 8 
0
 62 
 7 
 10 
3.233
 20 
3.133
 11 
3.225
 21 
3.125
 0 
LINE
 8 
0
 62 
 7 
 10 
3.225
 20 
3.125
 11 
3.2
 21 
3.125
 0 
LINE
 8 
0
 62 
 7 
 10 
3.208
 20 
3.125
 11 
3.233
 21 
3.1
 0 
LINE
 8 
0
 62 
 7 
 10 
3.25
 20 
3.142
 11 
3.258
 21 
3.15
 0 
LINE
 8 
0
 62 
 7 
 10 
3.258
 20 
3.15
 11 
3.275
 21 
3.15
 0 
LINE
 8 
0
 62 
 7 
 10 
3.275
 20 
3.15
 11 
3.283
 21 
3.142
 0 
LINE
 8 
0
 62 
 7 
 10 
3.283
 20 
3.142
 11 
3.283
 21 
3.133
 0 
LINE
 8 
0
 62 
 7 
 10 
3.283
 20 
3.133
 11 
3.275
 21 
3.125
 0 
LINE
 8 
0
 62 
 7 
 10 
3.275
 20 
3.125
 11 
3.258
 21 
3.125
 0 
LINE
 8 
0
 62 
 7 
 10 
3.258
 20 
3.125
 11 
3.25
 21 
3.117
 0 
LINE
 8 
0
 62 
 7 
 10 
3.25
 20 
3.117
 11 
3.25
 21 
3.1
 0 
LINE
 8 
0
 62 
 7 
 10 
3.25
 20 
3.1
 11 
3.283
 21 
3.1
 0 
LINE
 8 
0
 62 
 7 
 10 
3.058
 20 
3.425
 11 
3.083
 21 
3.425
 0 
LINE
 8 
0
 62 
 7 
 10 
3.083
 20 
3.425
 11 
3.083
 21 
3.383
 0 
LINE
 8 
0
 62 
 7 
 10 
3.083
 20 
3.383
 11 
3.075
 21 
3.375
 0 
LINE
 8 
0
 62 
 7 
 10 
3.075
 20 
3.375
 11 
3.058
 21 
3.375
 0 
LINE
 8 
0
 62 
 7 
 10 
3.058
 20 
3.375
 11 
3.05
 21 
3.383
 0 
LINE
 8 
0
 62 
 7 
 10 
3.1
 20 
3.417
 11 
3.1
 21 
3.425
 0 
LINE
 8 
0
 62 
 7 
 10 
3.1
 20 
3.425
 11 
3.133
 21 
3.425
 0 
LINE
 8 
0
 62 
 7 
 10 
3.133
 20 
3.425
 11 
3.133
 21 
3.417
 0 
LINE
 8 
0
 62 
 7 
 10 
3.133
 20 
3.417
 11 
3.108
 21 
3.392
 0 
LINE
 8 
0
 62 
 7 
 10 
3.108
 20 
3.392
 11 
3.108
 21 
3.375
 0 
LINE
 8 
0
 62 
 7 
 10 
3.785
 20 
3.522
 11 
3.815
 21 
3.522
 0 
LINE
 8 
0
 62 
 7 
 10 
3.815
 20 
3.522
 11 
3.815
 21 
3.427
 0 
LINE
 8 
0
 62 
 7 
 10 
3.815
 20 
3.427
 11 
3.785
 21 
3.427
 0 
LINE
 8 
0
 62 
 7 
 10 
3.785
 20 
3.427
 11 
3.785
 21 
3.522
 0 
LINE
 8 
0
 62 
 7 
 10 
3.835
 20 
3.522
 11 
3.865
 21 
3.522
 0 
LINE
 8 
0
 62 
 7 
 10 
3.865
 20 
3.522
 11 
3.865
 21 
3.427
 0 
LINE
 8 
0
 62 
 7 
 10 
3.865
 20 
3.427
 11 
3.835
 21 
3.427
 0 
LINE
 8 
0
 62 
 7 
 10 
3.835
 20 
3.427
 11 
3.835
 21 
3.522
 0 
LINE
 8 
0
 62 
 7 
 10 
3.885
 20 
3.522
 11 
3.915
 21 
3.522
 0 
LINE
 8 
0
 62 
 7 
 10 
3.915
 20 
3.522
 11 
3.915
 21 
3.427
 0 
LINE
 8 
0
 62 
 7 
 10 
3.915
 20 
3.427
 11 
3.885
 21 
3.427
 0 
LINE
 8 
0
 62 
 7 
 10 
3.885
 20 
3.427
 11 
3.885
 21 
3.522
 0 
LINE
 8 
0
 62 
 7 
 10 
3.685
 20 
3.522
 11 
3.715
 21 
3.522
 0 
LINE
 8 
0
 62 
 7 
 10 
3.715
 20 
3.522
 11 
3.715
 21 
3.427
 0 
LINE
 8 
0
 62 
 7 
 10 
3.715
 20 
3.427
 11 
3.685
 21 
3.427
 0 
LINE
 8 
0
 62 
 7 
 10 
3.685
 20 
3.427
 11 
3.685
 21 
3.522
 0 
LINE
 8 
0
 62 
 7 
 10 
3.685
 20 
3.362
 11 
3.715
 21 
3.362
 0 
LINE
 8 
0
 62 
 7 
 10 
3.715
 20 
3.362
 11 
3.715
 21 
3.267
 0 
LINE
 8 
0
 62 
 7 
 10 
3.715
 20 
3.267
 11 
3.685
 21 
3.267
 0 
LINE
 8 
0
 62 
 7 
 10 
3.685
 20 
3.267
 11 
3.685
 21 
3.362
 0 
LINE
 8 
0
 62 
 7 
 10 
3.885
 20 
3.362
 11 
3.915
 21 
3.362
 0 
LINE
 8 
0
 62 
 7 
 10 
3.915
 20 
3.362
 11 
3.915
 21 
3.267
 0 
LINE
 8 
0
 62 
 7 
 10 
3.915
 20 
3.267
 11 
3.885
 21 
3.267
 0 
LINE
 8 
0
 62 
 7 
 10 
3.885
 20 
3.267
 11 
3.885
 21 
3.362
 0 
LINE
 8 
0
 62 
 7 
 10 
3.735
 20 
3.362
 11 
3.765
 21 
3.362
 0 
LINE
 8 
0
 62 
 7 
 10 
3.765
 20 
3.362
 11 
3.765
 21 
3.267
 0 
LINE
 8 
0
 62 
 7 
 10 
3.765
 20 
3.267
 11 
3.735
 21 
3.267
 0 
LINE
 8 
0
 62 
 7 
 10 
3.735
 20 
3.267
 11 
3.735
 21 
3.362
 0 
LINE
 8 
0
 62 
 7 
 10 
3.785
 20 
3.362
 11 
3.815
 21 
3.362
 0 
LINE
 8 
0
 62 
 7 
 10 
3.815
 20 
3.362
 11 
3.815
 21 
3.267
 0 
LINE
 8 
0
 62 
 7 
 10 
3.815
 20 
3.267
 11 
3.785
 21 
3.267
 0 
LINE
 8 
0
 62 
 7 
 10 
3.785
 20 
3.267
 11 
3.785
 21 
3.362
 0 
LINE
 8 
0
 62 
 7 
 10 
3.835
 20 
3.362
 11 
3.865
 21 
3.362
 0 
LINE
 8 
0
 62 
 7 
 10 
3.865
 20 
3.362
 11 
3.865
 21 
3.267
 0 
LINE
 8 
0
 62 
 7 
 10 
3.865
 20 
3.267
 11 
3.835
 21 
3.267
 0 
LINE
 8 
0
 62 
 7 
 10 
3.835
 20 
3.267
 11 
3.835
 21 
3.362
 0 
LINE
 8 
0
 62 
 7 
 10 
3.31
 20 
3.39
 11 
3.34
 21 
3.39
 0 
LINE
 8 
0
 62 
 7 
 10 
3.34
 20 
3.39
 11 
3.34
 21 
3.36
 0 
LINE
 8 
0
 62 
 7 
 10 
3.34
 20 
3.36
 11 
3.31
 21 
3.36
 0 
LINE
 8 
0
 62 
 7 
 10 
3.31
 20 
3.36
 11 
3.31
 21 
3.39
 0 
LINE
 8 
0
 62 
 7 
 10 
3.735
 20 
3.522
 11 
3.765
 21 
3.522
 0 
LINE
 8 
0
 62 
 7 
 10 
3.765
 20 
3.522
 11 
3.765
 21 
3.427
 0 
LINE
 8 
0
 62 
 7 
 10 
3.765
 20 
3.427
 11 
3.735
 21 
3.427
 0 
LINE
 8 
0
 62 
 7 
 10 
3.735
 20 
3.427
 11 
3.735
 21 
3.522
 0 
LINE
 8 
0
 62 
 7 
 10 
3.758
 20 
3.425
 11 
3.783
 21 
3.425
 0 
LINE
 8 
0
 62 
 7 
 10 
3.783
 20 
3.425
 11 
3.783
 21 
3.383
 0 
LINE
 8 
0
 62 
 7 
 10 
3.783
 20 
3.383
 11 
3.775
 21 
3.375
 0 
LINE
 8 
0
 62 
 7 
 10 
3.775
 20 
3.375
 11 
3.758
 21 
3.375
 0 
LINE
 8 
0
 62 
 7 
 10 
3.758
 20 
3.375
 11 
3.75
 21 
3.383
 0 
LINE
 8 
0
 62 
 7 
 10 
3.808
 20 
3.4
 11 
3.8
 21 
3.408
 0 
LINE
 8 
0
 62 
 7 
 10 
3.8
 20 
3.408
 11 
3.8
 21 
3.417
 0 
LINE
 8 
0
 62 
 7 
 10 
3.8
 20 
3.417
 11 
3.808
 21 
3.425
 0 
LINE
 8 
0
 62 
 7 
 10 
3.808
 20 
3.425
 11 
3.825
 21 
3.425
 0 
LINE
 8 
0
 62 
 7 
 10 
3.825
 20 
3.425
 11 
3.833
 21 
3.417
 0 
LINE
 8 
0
 62 
 7 
 10 
3.833
 20 
3.417
 11 
3.833
 21 
3.408
 0 
LINE
 8 
0
 62 
 7 
 10 
3.833
 20 
3.408
 11 
3.825
 21 
3.4
 0 
LINE
 8 
0
 62 
 7 
 10 
3.825
 20 
3.4
 11 
3.808
 21 
3.4
 0 
LINE
 8 
0
 62 
 7 
 10 
3.808
 20 
3.4
 11 
3.8
 21 
3.392
 0 
LINE
 8 
0
 62 
 7 
 10 
3.8
 20 
3.392
 11 
3.8
 21 
3.383
 0 
LINE
 8 
0
 62 
 7 
 10 
3.8
 20 
3.383
 11 
3.808
 21 
3.375
 0 
LINE
 8 
0
 62 
 7 
 10 
3.808
 20 
3.375
 11 
3.825
 21 
3.375
 0 
LINE
 8 
0
 62 
 7 
 10 
3.825
 20 
3.375
 11 
3.833
 21 
3.383
 0 
LINE
 8 
0
 62 
 7 
 10 
3.833
 20 
3.383
 11 
3.833
 21 
3.392
 0 
LINE
 8 
0
 62 
 7 
 10 
3.833
 20 
3.392
 11 
3.825
 21 
3.4
 0 
CIRCLE
 8 
0
 62 
 7 
 10 
0.5
 20 
3.625
 40 
0.135
 0 
CIRCLE
 8 
0
 62 
 7 
 10 
0.5
 20 
3.625
 40 
0.126
 0 
CIRCLE
 8 
0
 62 
 7 
 10 
0.5
 20 
0.375
 40 
0.135
 0 
CIRCLE
 8 
0
 62 
 7 
 10 
0.5
 20 
0.375
 40 
0.126
 0 
CIRCLE
 8 
0
 62 
 7 
 10 
5.0
 20 
0.375
 40 
0.135
 0 
CIRCLE
 8 
0
 62 
 7 
 10 
5.0
 20 
0.375
 40 
0.126
 0 
CIRCLE
 8 
0
 62 
 7 
 10 
5.0
 20 
3.625
 40 
0.135
 0 
CIRCLE
 8 
0
 62 
 7 
 10 
5.0
 20 
3.625
 40 
0.126
 0 
LINE
 8 
0
 62 
 7 
 10 
1.4
 20 
2.095
 11 
1.58
 21 
2.095
 0 
LINE
 8 
0
 62 
 7 
 10 
2.0
 20 
2.095
 11 
2.0
 21 
1.895
 0 
LINE
 8 
0
 62 
 7 
 10 
1.4
 20 
1.895
 11 
1.58
 21 
1.895
 0 
LINE
 8 
0
 62 
 7 
 10 
1.4
 20 
1.895
 11 
1.4
 21 
2.095
 0 
LINE
 8 
0
 62 
 7 
 10 
1.685
 20 
2.122
 11 
1.715
 21 
2.122
 0 
LINE
 8 
0
 62 
 7 
 10 
1.715
 20 
2.122
 11 
1.715
 21 
2.027
 0 
LINE
 8 
0
 62 
 7 
 10 
1.715
 20 
2.027
 11 
1.685
 21 
2.027
 0 
LINE
 8 
0
 62 
 7 
 10 
1.685
 20 
2.027
 11 
1.685
 21 
2.122
 0 
LINE
 8 
0
 62 
 7 
 10 
1.635
 20 
2.122
 11 
1.665
 21 
2.122
 0 
LINE
 8 
0
 62 
 7 
 10 
1.665
 20 
2.122
 11 
1.665
 21 
2.027
 0 
LINE
 8 
0
 62 
 7 
 10 
1.665
 20 
2.027
 11 
1.635
 21 
2.027
 0 
LINE
 8 
0
 62 
 7 
 10 
1.635
 20 
2.027
 11 
1.635
 21 
2.122
 0 
LINE
 8 
0
 62 
 7 
 10 
1.585
 20 
2.122
 11 
1.615
 21 
2.122
 0 
LINE
 8 
0
 62 
 7 
 10 
1.615
 20 
2.122
 11 
1.615
 21 
2.027
 0 
LINE
 8 
0
 62 
 7 
 10 
1.615
 20 
2.027
 11 
1.585
 21 
2.027
 0 
LINE
 8 
0
 62 
 7 
 10 
1.585
 20 
2.027
 11 
1.585
 21 
2.122
 0 
LINE
 8 
0
 62 
 7 
 10 
1.735
 20 
2.122
 11 
1.765
 21 
2.122
 0 
LINE
 8 
0
 62 
 7 
 10 
1.765
 20 
2.122
 11 
1.765
 21 
2.027
 0 
LINE
 8 
0
 62 
 7 
 10 
1.765
 20 
2.027
 11 
1.735
 21 
2.027
 0 
LINE
 8 
0
 62 
 7 
 10 
1.735
 20 
2.027
 11 
1.735
 21 
2.122
 0 
LINE
 8 
0
 62 
 7 
 10 
1.785
 20 
2.122
 11 
1.815
 21 
2.122
 0 
LINE
 8 
0
 62 
 7 
 10 
1.815
 20 
2.122
 11 
1.815
 21 
2.027
 0 
LINE
 8 
0
 62 
 7 
 10 
1.815
 20 
2.027
 11 
1.785
 21 
2.027
 0 
LINE
 8 
0
 62 
 7 
 10 
1.785
 20 
2.027
 11 
1.785
 21 
2.122
 0 
LINE
 8 
0
 62 
 7 
 10 
1.685
 20 
1.962
 11 
1.715
 21 
1.962
 0 
LINE
 8 
0
 62 
 7 
 10 
1.715
 20 
1.962
 11 
1.715
 21 
1.867
 0 
LINE
 8 
0
 62 
 7 
 10 
1.715
 20 
1.867
 11 
1.685
 21 
1.867
 0 
LINE
 8 
0
 62 
 7 
 10 
1.685
 20 
1.867
 11 
1.685
 21 
1.962
 0 
LINE
 8 
0
 62 
 7 
 10 
1.4
 20 
3.195
 11 
1.58
 21 
3.195
 0 
LINE
 8 
0
 62 
 7 
 10 
2.0
 20 
3.195
 11 
2.0
 21 
2.995
 0 
LINE
 8 
0
 62 
 7 
 10 
1.4
 20 
2.995
 11 
1.58
 21 
2.995
 0 
LINE
 8 
0
 62 
 7 
 10 
1.4
 20 
2.995
 11 
1.4
 21 
3.195
 0 
LINE
 8 
0
 62 
 7 
 10 
1.685
 20 
3.222
 11 
1.715
 21 
3.222
 0 
LINE
 8 
0
 62 
 7 
 10 
1.715
 20 
3.222
 11 
1.715
 21 
3.127
 0 
LINE
 8 
0
 62 
 7 
 10 
1.715
 20 
3.127
 11 
1.685
 21 
3.127
 0 
LINE
 8 
0
 62 
 7 
 10 
1.685
 20 
3.127
 11 
1.685
 21 
3.222
 0 
LINE
 8 
0
 62 
 7 
 10 
1.635
 20 
3.222
 11 
1.665
 21 
3.222
 0 
LINE
 8 
0
 62 
 7 
 10 
1.665
 20 
3.222
 11 
1.665
 21 
3.127
 0 
LINE
 8 
0
 62 
 7 
 10 
1.665
 20 
3.127
 11 
1.635
 21 
3.127
 0 
LINE
 8 
0
 62 
 7 
 10 
1.635
 20 
3.127
 11 
1.635
 21 
3.222
 0 
LINE
 8 
0
 62 
 7 
 10 
3.31
 20 
3.445
 11 
3.34
 21 
3.445
 0 
LINE
 8 
0
 62 
 7 
 10 
3.34
 20 
3.445
 11 
3.34
 21 
3.415
 0 
LINE
 8 
0
 62 
 7 
 10 
3.34
 20 
3.415
 11 
3.31
 21 
3.415
 0 
LINE
 8 
0
 62 
 7 
 10 
3.31
 20 
3.415
 11 
3.31
 21 
3.445
 0 
LINE
 8 
0
 62 
 7 
 10 
2.45
 20 
3.195
 11 
2.63
 21 
3.195
 0 
LINE
 8 
0
 62 
 7 
 10 
3.05
 20 
3.195
 11 
3.05
 21 
2.995
 0 
LINE
 8 
0
 62 
 7 
 10 
2.45
 20 
2.995
 11 
2.63
 21 
2.995
 0 
LINE
 8 
0
 62 
 7 
 10 
2.45
 20 
2.995
 11 
2.45
 21 
3.195
 0 
LINE
 8 
0
 62 
 7 
 10 
2.735
 20 
3.222
 11 
2.765
 21 
3.222
 0 
LINE
 8 
0
 62 
 7 
 10 
2.765
 20 
3.222
 11 
2.765
 21 
3.127
 0 
LINE
 8 
0
 62 
 7 
 10 
2.765
 20 
3.127
 11 
2.735
 21 
3.127
 0 
LINE
 8 
0
 62 
 7 
 10 
2.735
 20 
3.127
 11 
2.735
 21 
3.222
 0 
LINE
 8 
0
 62 
 7 
 10 
1.585
 20 
3.222
 11 
1.615
 21 
3.222
 0 
LINE
 8 
0
 62 
 7 
 10 
1.615
 20 
3.222
 11 
1.615
 21 
3.127
 0 
LINE
 8 
0
 62 
 7 
 10 
1.615
 20 
3.127
 11 
1.585
 21 
3.127
 0 
LINE
 8 
0
 62 
 7 
 10 
1.585
 20 
3.127
 11 
1.585
 21 
3.222
 0 
LINE
 8 
0
 62 
 7 
 10 
1.735
 20 
3.222
 11 
1.765
 21 
3.222
 0 
LINE
 8 
0
 62 
 7 
 10 
1.765
 20 
3.222
 11 
1.765
 21 
3.127
 0 
LINE
 8 
0
 62 
 7 
 10 
1.765
 20 
3.127
 11 
1.735
 21 
3.127
 0 
LINE
 8 
0
 62 
 7 
 10 
1.735
 20 
3.127
 11 
1.735
 21 
3.222
 0 
LINE
 8 
0
 62 
 7 
 10 
1.785
 20 
3.222
 11 
1.815
 21 
3.222
 0 
LINE
 8 
0
 62 
 7 
 10 
1.815
 20 
3.222
 11 
1.815
 21 
3.127
 0 
LINE
 8 
0
 62 
 7 
 10 
1.815
 20 
3.127
 11 
1.785
 21 
3.127
 0 
LINE
 8 
0
 62 
 7 
 10 
1.785
 20 
3.127
 11 
1.785
 21 
3.222
 0 
LINE
 8 
0
 62 
 7 
 10 
1.685
 20 
3.062
 11 
1.715
 21 
3.062
 0 
LINE
 8 
0
 62 
 7 
 10 
1.715
 20 
3.062
 11 
1.715
 21 
2.967
 0 
LINE
 8 
0
 62 
 7 
 10 
1.715
 20 
2.967
 11 
1.685
 21 
2.967
 0 
LINE
 8 
0
 62 
 7 
 10 
1.685
 20 
2.967
 11 
1.685
 21 
3.062
 0 
LINE
 8 
0
 62 
 7 
 10 
1.735
 20 
3.062
 11 
1.765
 21 
3.062
 0 
LINE
 8 
0
 62 
 7 
 10 
1.765
 20 
3.062
 11 
1.765
 21 
2.967
 0 
LINE
 8 
0
 62 
 7 
 10 
1.765
 20 
2.967
 11 
1.735
 21 
2.967
 0 
LINE
 8 
0
 62 
 7 
 10 
1.735
 20 
2.967
 11 
1.735
 21 
3.062
 0 
LINE
 8 
0
 62 
 7 
 10 
1.785
 20 
3.062
 11 
1.815
 21 
3.062
 0 
LINE
 8 
0
 62 
 7 
 10 
1.815
 20 
3.062
 11 
1.815
 21 
2.967
 0 
LINE
 8 
0
 62 
 7 
 10 
1.815
 20 
2.967
 11 
1.785
 21 
2.967
 0 
LINE
 8 
0
 62 
 7 
 10 
1.785
 20 
2.967
 11 
1.785
 21 
3.062
 0 
LINE
 8 
0
 62 
 7 
 10 
1.635
 20 
3.062
 11 
1.665
 21 
3.062
 0 
LINE
 8 
0
 62 
 7 
 10 
1.665
 20 
3.062
 11 
1.665
 21 
2.967
 0 
LINE
 8 
0
 62 
 7 
 10 
1.665
 20 
2.967
 11 
1.635
 21 
2.967
 0 
LINE
 8 
0
 62 
 7 
 10 
1.635
 20 
2.967
 11 
1.635
 21 
3.062
 0 
LINE
 8 
0
 62 
 7 
 10 
1.585
 20 
3.062
 11 
1.615
 21 
3.062
 0 
LINE
 8 
0
 62 
 7 
 10 
1.615
 20 
3.062
 11 
1.615
 21 
2.967
 0 
LINE
 8 
0
 62 
 7 
 10 
1.615
 20 
2.967
 11 
1.585
 21 
2.967
 0 
LINE
 8 
0
 62 
 7 
 10 
1.585
 20 
2.967
 11 
1.585
 21 
3.062
 0 
LINE
 8 
0
 62 
 7 
 10 
1.82
 20 
2.995
 11 
2.0
 21 
2.995
 0 
LINE
 8 
0
 62 
 7 
 10 
2.0
 20 
3.195
 11 
1.82
 21 
3.195
 0 
LINE
 8 
0
 62 
 7 
 10 
1.62
 20 
3.195
 11 
1.63
 21 
3.195
 0 
LINE
 8 
0
 62 
 7 
 10 
1.67
 20 
3.195
 11 
1.68
 21 
3.195
 0 
LINE
 8 
0
 62 
 7 
 10 
1.72
 20 
3.195
 11 
1.73
 21 
3.195
 0 
LINE
 8 
0
 62 
 7 
 10 
1.77
 20 
3.195
 11 
1.78
 21 
3.195
 0 
LINE
 8 
0
 62 
 7 
 10 
1.62
 20 
2.995
 11 
1.63
 21 
2.995
 0 
LINE
 8 
0
 62 
 7 
 10 
1.77
 20 
2.995
 11 
1.78
 21 
2.995
 0 
LINE
 8 
0
 62 
 7 
 10 
1.4
 20 
0.995
 11 
1.58
 21 
0.995
 0 
LINE
 8 
0
 62 
 7 
 10 
2.0
 20 
0.995
 11 
2.0
 21 
0.795
 0 
LINE
 8 
0
 62 
 7 
 10 
1.4
 20 
0.795
 11 
1.58
 21 
0.795
 0 
LINE
 8 
0
 62 
 7 
 10 
1.4
 20 
0.795
 11 
1.4
 21 
0.995
 0 
LINE
 8 
0
 62 
 7 
 10 
1.685
 20 
1.022
 11 
1.715
 21 
1.022
 0 
LINE
 8 
0
 62 
 7 
 10 
1.715
 20 
1.022
 11 
1.715
 21 
0.927
 0 
LINE
 8 
0
 62 
 7 
 10 
1.715
 20 
0.927
 11 
1.685
 21 
0.927
 0 
LINE
 8 
0
 62 
 7 
 10 
1.685
 20 
0.927
 11 
1.685
 21 
1.022
 0 
LINE
 8 
0
 62 
 7 
 10 
1.635
 20 
1.022
 11 
1.665
 21 
1.022
 0 
LINE
 8 
0
 62 
 7 
 10 
1.665
 20 
1.022
 11 
1.665
 21 
0.927
 0 
LINE
 8 
0
 62 
 7 
 10 
1.665
 20 
0.927
 11 
1.635
 21 
0.927
 0 
LINE
 8 
0
 62 
 7 
 10 
1.635
 20 
0.927
 11 
1.635
 21 
1.022
 0 
LINE
 8 
0
 62 
 7 
 10 
2.685
 20 
3.222
 11 
2.715
 21 
3.222
 0 
LINE
 8 
0
 62 
 7 
 10 
2.715
 20 
3.222
 11 
2.715
 21 
3.127
 0 
LINE
 8 
0
 62 
 7 
 10 
2.715
 20 
3.127
 11 
2.685
 21 
3.127
 0 
LINE
 8 
0
 62 
 7 
 10 
2.685
 20 
3.127
 11 
2.685
 21 
3.222
 0 
LINE
 8 
0
 62 
 7 
 10 
2.635
 20 
3.222
 11 
2.665
 21 
3.222
 0 
LINE
 8 
0
 62 
 7 
 10 
2.665
 20 
3.222
 11 
2.665
 21 
3.127
 0 
LINE
 8 
0
 62 
 7 
 10 
2.665
 20 
3.127
 11 
2.635
 21 
3.127
 0 
LINE
 8 
0
 62 
 7 
 10 
2.635
 20 
3.127
 11 
2.635
 21 
3.222
 0 
LINE
 8 
0
 62 
 7 
 10 
2.785
 20 
3.222
 11 
2.815
 21 
3.222
 0 
LINE
 8 
0
 62 
 7 
 10 
2.815
 20 
3.222
 11 
2.815
 21 
3.127
 0 
LINE
 8 
0
 62 
 7 
 10 
2.815
 20 
3.127
 11 
2.785
 21 
3.127
 0 
LINE
 8 
0
 62 
 7 
 10 
2.785
 20 
3.127
 11 
2.785
 21 
3.222
 0 
LINE
 8 
0
 62 
 7 
 10 
2.835
 20 
3.222
 11 
2.865
 21 
3.222
 0 
LINE
 8 
0
 62 
 7 
 10 
2.865
 20 
3.222
 11 
2.865
 21 
3.127
 0 
LINE
 8 
0
 62 
 7 
 10 
2.865
 20 
3.127
 11 
2.835
 21 
3.127
 0 
LINE
 8 
0
 62 
 7 
 10 
2.835
 20 
3.127
 11 
2.835
 21 
3.222
 0 
LINE
 8 
0
 62 
 7 
 10 
2.735
 20 
3.062
 11 
2.765
 21 
3.062
 0 
LINE
 8 
0
 62 
 7 
 10 
2.765
 20 
3.062
 11 
2.765
 21 
2.967
 0 
LINE
 8 
0
 62 
 7 
 10 
2.765
 20 
2.967
 11 
2.735
 21 
2.967
 0 
LINE
 8 
0
 62 
 7 
 10 
2.735
 20 
2.967
 11 
2.735
 21 
3.062
 0 
LINE
 8 
0
 62 
 7 
 10 
2.785
 20 
3.062
 11 
2.815
 21 
3.062
 0 
LINE
 8 
0
 62 
 7 
 10 
2.815
 20 
3.062
 11 
2.815
 21 
2.967
 0 
LINE
 8 
0
 62 
 7 
 10 
2.815
 20 
2.967
 11 
2.785
 21 
2.967
 0 
LINE
 8 
0
 62 
 7 
 10 
2.785
 20 
2.967
 11 
2.785
 21 
3.062
 0 
LINE
 8 
0
 62 
 7 
 10 
2.835
 20 
3.062
 11 
2.865
 21 
3.062
 0 
LINE
 8 
0
 62 
 7 
 10 
2.865
 20 
3.062
 11 
2.865
 21 
2.967
 0 
LINE
 8 
0
 62 
 7 
 10 
2.865
 20 
2.967
 11 
2.835
 21 
2.967
 0 
LINE
 8 
0
 62 
 7 
 10 
2.835
 20 
2.967
 11 
2.835
 21 
3.062
 0 
LINE
 8 
0
 62 
 7 
 10 
2.685
 20 
3.062
 11 
2.715
 21 
3.062
 0 
LINE
 8 
0
 62 
 7 
 10 
2.715
 20 
3.062
 11 
2.715
 21 
2.967
 0 
LINE
 8 
0
 62 
 7 
 10 
2.715
 20 
2.967
 11 
2.685
 21 
2.967
 0 
LINE
 8 
0
 62 
 7 
 10 
2.685
 20 
2.967
 11 
2.685
 21 
3.062
 0 
LINE
 8 
0
 62 
 7 
 10 
2.635
 20 
3.062
 11 
2.665
 21 
3.062
 0 
LINE
 8 
0
 62 
 7 
 10 
2.665
 20 
3.062
 11 
2.665
 21 
2.967
 0 
LINE
 8 
0
 62 
 7 
 10 
2.665
 20 
2.967
 11 
2.635
 21 
2.967
 0 
LINE
 8 
0
 62 
 7 
 10 
2.635
 20 
2.967
 11 
2.635
 21 
3.062
 0 
LINE
 8 
0
 62 
 7 
 10 
2.87
 20 
2.995
 11 
3.05
 21 
2.995
 0 
LINE
 8 
0
 62 
 7 
 10 
3.05
 20 
3.195
 11 
2.87
 21 
3.195
 0 
LINE
 8 
0
 62 
 7 
 10 
2.67
 20 
3.195
 11 
2.68
 21 
3.195
 0 
LINE
 8 
0
 62 
 7 
 10 
2.72
 20 
3.195
 11 
2.73
 21 
3.195
 0 
LINE
 8 
0
 62 
 7 
 10 
2.77
 20 
3.195
 11 
2.78
 21 
3.195
 0 
LINE
 8 
0
 62 
 7 
 10 
2.82
 20 
3.195
 11 
2.83
 21 
3.195
 0 
LINE
 8 
0
 62 
 7 
 10 
2.67
 20 
2.995
 11 
2.68
 21 
2.995
 0 
LINE
 8 
0
 62 
 7 
 10 
3.593
 20 
2.607
 11 
3.657
 21 
2.607
 0 
LINE
 8 
0
 62 
 7 
 10 
3.657
 20 
2.607
 11 
3.657
 21 
2.543
 0 
LINE
 8 
0
 62 
 7 
 10 
3.657
 20 
2.543
 11 
3.593
 21 
2.543
 0 
LINE
 8 
0
 62 
 7 
 10 
3.593
 20 
2.543
 11 
3.593
 21 
2.607
 0 
LINE
 8 
0
 62 
 7 
 10 
3.718
 20 
2.607
 11 
3.782
 21 
2.607
 0 
LINE
 8 
0
 62 
 7 
 10 
3.782
 20 
2.607
 11 
3.782
 21 
2.543
 0 
LINE
 8 
0
 62 
 7 
 10 
3.782
 20 
2.543
 11 
3.718
 21 
2.543
 0 
LINE
 8 
0
 62 
 7 
 10 
3.718
 20 
2.543
 11 
3.718
 21 
2.607
 0 
LINE
 8 
0
 62 
 7 
 10 
3.651
 20 
2.522
 11 
3.572
 21 
2.522
 0 
LINE
 8 
0
 62 
 7 
 10 
3.572
 20 
2.522
 11 
3.572
 21 
2.628
 0 
LINE
 8 
0
 62 
 7 
 10 
3.572
 20 
2.628
 11 
3.651
 21 
2.628
 0 
LINE
 8 
0
 62 
 7 
 10 
3.723
 20 
2.522
 11 
3.802
 21 
2.522
 0 
LINE
 8 
0
 62 
 7 
 10 
3.802
 20 
2.522
 11 
3.802
 21 
2.628
 0 
LINE
 8 
0
 62 
 7 
 10 
3.802
 20 
2.628
 11 
3.723
 21 
2.628
 0 
LINE
 8 
0
 62 
 7 
 10 
3.662
 20 
2.708
 11 
3.629
 21 
2.708
 0 
LINE
 8 
0
 62 
 7 
 10 
3.629
 20 
2.708
 11 
3.629
 21 
2.658
 0 
LINE
 8 
0
 62 
 7 
 10 
3.629
 20 
2.683
 11 
3.654
 21 
2.683
 0 
LINE
 8 
0
 62 
 7 
 10 
3.687
 20 
2.7
 11 
3.696
 21 
2.708
 0 
LINE
 8 
0
 62 
 7 
 10 
3.696
 20 
2.708
 11 
3.696
 21 
2.658
 0 
LINE
 8 
0
 62 
 7 
 10 
3.687
 20 
2.658
 11 
3.704
 21 
2.658
 0 
LINE
 8 
0
 62 
 7 
 10 
3.36
 20 
3.385
 11 
3.36
 21 
3.341
 0 
LINE
 8 
0
 62 
 7 
 10 
3.36
 20 
3.341
 11 
3.29
 21 
3.341
 0 
LINE
 8 
0
 62 
 7 
 10 
3.29
 20 
3.341
 11 
3.29
 21 
3.385
 0 
LINE
 8 
0
 62 
 7 
 10 
3.3
 20 
2.602
 11 
3.351
 21 
2.602
 0 
LINE
 8 
0
 62 
 7 
 10 
3.351
 20 
2.602
 11 
3.351
 21 
2.547
 0 
LINE
 8 
0
 62 
 7 
 10 
3.351
 20 
2.547
 11 
3.3
 21 
2.547
 0 
LINE
 8 
0
 62 
 7 
 10 
3.3
 20 
2.547
 11 
3.3
 21 
2.602
 0 
LINE
 8 
0
 62 
 7 
 10 
3.414
 20 
2.602
 11 
3.465
 21 
2.602
 0 
LINE
 8 
0
 62 
 7 
 10 
3.465
 20 
2.602
 11 
3.465
 21 
2.547
 0 
LINE
 8 
0
 62 
 7 
 10 
3.465
 20 
2.547
 11 
3.414
 21 
2.547
 0 
LINE
 8 
0
 62 
 7 
 10 
3.414
 20 
2.547
 11 
3.414
 21 
2.602
 0 
LINE
 8 
0
 62 
 7 
 10 
3.35
 20 
2.624
 11 
3.27
 21 
2.624
 0 
LINE
 8 
0
 62 
 7 
 10 
3.27
 20 
2.624
 11 
3.27
 21 
2.526
 0 
LINE
 8 
0
 62 
 7 
 10 
3.27
 20 
2.526
 11 
3.35
 21 
2.526
 0 
LINE
 8 
0
 62 
 7 
 10 
3.41
 20 
2.624
 11 
3.49
 21 
2.624
 0 
LINE
 8 
0
 62 
 7 
 10 
3.49
 20 
2.615
 11 
3.49
 21 
2.535
 0 
LINE
 8 
0
 62 
 7 
 10 
3.41
 20 
2.526
 11 
3.49
 21 
2.526
 0 
LINE
 8 
0
 62 
 7 
 10 
3.375
 20 
2.7
 11 
3.4
 21 
2.7
 0 
LINE
 8 
0
 62 
 7 
 10 
3.4
 20 
2.7
 11 
3.408
 21 
2.692
 0 
LINE
 8 
0
 62 
 7 
 10 
3.408
 20 
2.692
 11 
3.408
 21 
2.658
 0 
LINE
 8 
0
 62 
 7 
 10 
3.408
 20 
2.658
 11 
3.4
 21 
2.65
 0 
LINE
 8 
0
 62 
 7 
 10 
3.4
 20 
2.65
 11 
3.375
 21 
2.65
 0 
LINE
 8 
0
 62 
 7 
 10 
3.383
 20 
2.7
 11 
3.383
 21 
2.65
 0 
LINE
 8 
0
 62 
 7 
 10 
3.425
 20 
2.692
 11 
3.433
 21 
2.7
 0 
LINE
 8 
0
 62 
 7 
 10 
3.433
 20 
2.7
 11 
3.45
 21 
2.7
 0 
LINE
 8 
0
 62 
 7 
 10 
3.45
 20 
2.7
 11 
3.458
 21 
2.692
 0 
LINE
 8 
0
 62 
 7 
 10 
3.458
 20 
2.692
 11 
3.458
 21 
2.683
 0 
LINE
 8 
0
 62 
 7 
 10 
3.458
 20 
2.683
 11 
3.45
 21 
2.675
 0 
LINE
 8 
0
 62 
 7 
 10 
3.45
 20 
2.675
 11 
3.433
 21 
2.675
 0 
LINE
 8 
0
 62 
 7 
 10 
3.433
 20 
2.675
 11 
3.425
 21 
2.667
 0 
LINE
 8 
0
 62 
 7 
 10 
3.425
 20 
2.667
 11 
3.425
 21 
2.65
 0 
LINE
 8 
0
 62 
 7 
 10 
3.425
 20 
2.65
 11 
3.458
 21 
2.65
 0 
LINE
 8 
0
 62 
 7 
 10 
3.36
 20 
3.421
 11 
3.36
 21 
3.465
 0 
LINE
 8 
0
 62 
 7 
 10 
3.36
 20 
3.465
 11 
3.29
 21 
3.465
 0 
LINE
 8 
0
 62 
 7 
 10 
3.29
 20 
3.465
 11 
3.29
 21 
3.421
 0 
LINE
 8 
0
 62 
 7 
 10 
3.316
 20 
3.559
 11 
3.308
 21 
3.567
 0 
LINE
 8 
0
 62 
 7 
 10 
3.308
 20 
3.567
 11 
3.291
 21 
3.567
 0 
LINE
 8 
0
 62 
 7 
 10 
3.291
 20 
3.567
 11 
3.283
 21 
3.559
 0 
LINE
 8 
0
 62 
 7 
 10 
3.283
 20 
3.559
 11 
3.283
 21 
3.525
 0 
LINE
 8 
0
 62 
 7 
 10 
3.283
 20 
3.525
 11 
3.291
 21 
3.517
 0 
LINE
 8 
0
 62 
 7 
 10 
3.291
 20 
3.517
 11 
3.308
 21 
3.517
 0 
LINE
 8 
0
 62 
 7 
 10 
3.308
 20 
3.517
 11 
3.316
 21 
3.525
 0 
LINE
 8 
0
 62 
 7 
 10 
3.366
 20 
3.567
 11 
3.333
 21 
3.567
 0 
LINE
 8 
0
 62 
 7 
 10 
3.333
 20 
3.567
 11 
3.333
 21 
3.55
 0 
LINE
 8 
0
 62 
 7 
 10 
3.333
 20 
3.55
 11 
3.358
 21 
3.55
 0 
LINE
 8 
0
 62 
 7 
 10 
3.358
 20 
3.55
 11 
3.366
 21 
3.542
 0 
LINE
 8 
0
 62 
 7 
 10 
3.366
 20 
3.542
 11 
3.366
 21 
3.525
 0 
LINE
 8 
0
 62 
 7 
 10 
3.366
 20 
3.525
 11 
3.358
 21 
3.517
 0 
LINE
 8 
0
 62 
 7 
 10 
3.358
 20 
3.517
 11 
3.341
 21 
3.517
 0 
LINE
 8 
0
 62 
 7 
 10 
3.341
 20 
3.517
 11 
3.333
 21 
3.525
 0 
LINE
 8 
0
 62 
 7 
 10 
3.418
 20 
2.607
 11 
3.482
 21 
2.607
 0 
LINE
 8 
0
 62 
 7 
 10 
3.482
 20 
2.607
 11 
3.482
 21 
2.543
 0 
LINE
 8 
0
 62 
 7 
 10 
3.482
 20 
2.543
 11 
3.418
 21 
2.543
 0 
LINE
 8 
0
 62 
 7 
 10 
3.418
 20 
2.543
 11 
3.418
 21 
2.607
 0 
LINE
 8 
0
 62 
 7 
 10 
3.293
 20 
2.607
 11 
3.357
 21 
2.607
 0 
LINE
 8 
0
 62 
 7 
 10 
3.357
 20 
2.607
 11 
3.357
 21 
2.543
 0 
LINE
 8 
0
 62 
 7 
 10 
3.357
 20 
2.543
 11 
3.293
 21 
2.543
 0 
LINE
 8 
0
 62 
 7 
 10 
3.293
 20 
2.543
 11 
3.293
 21 
2.607
 0 
LINE
 8 
0
 62 
 7 
 10 
3.932
 20 
3.16
 11 
4.019
 21 
3.16
 0 
LINE
 8 
0
 62 
 7 
 10 
4.019
 20 
3.16
 11 
4.019
 21 
2.94
 0 
LINE
 8 
0
 62 
 7 
 10 
4.019
 20 
2.94
 11 
3.932
 21 
2.94
 0 
LINE
 8 
0
 62 
 7 
 10 
3.932
 20 
2.94
 11 
3.932
 21 
3.16
 0 
LINE
 8 
0
 62 
 7 
 10 
3.578
 20 
3.16
 11 
3.665
 21 
3.16
 0 
LINE
 8 
0
 62 
 7 
 10 
3.665
 20 
3.16
 11 
3.665
 21 
2.94
 0 
LINE
 8 
0
 62 
 7 
 10 
3.665
 20 
2.94
 11 
3.578
 21 
2.94
 0 
LINE
 8 
0
 62 
 7 
 10 
3.578
 20 
2.94
 11 
3.578
 21 
3.16
 0 
LINE
 8 
0
 62 
 7 
 10 
3.824
 20 
2.948
 11 
3.871
 21 
2.948
 0 
LINE
 8 
0
 62 
 7 
 10 
3.871
 20 
2.948
 11 
3.871
 21 
2.822
 0 
LINE
 8 
0
 62 
 7 
 10 
3.871
 20 
2.822
 11 
3.824
 21 
2.822
 0 
LINE
 8 
0
 62 
 7 
 10 
3.824
 20 
2.822
 11 
3.824
 21 
2.948
 0 
LINE
 8 
0
 62 
 7 
 10 
3.726
 20 
2.948
 11 
3.773
 21 
2.948
 0 
LINE
 8 
0
 62 
 7 
 10 
3.773
 20 
2.948
 11 
3.773
 21 
2.822
 0 
LINE
 8 
0
 62 
 7 
 10 
3.773
 20 
2.822
 11 
3.726
 21 
2.822
 0 
LINE
 8 
0
 62 
 7 
 10 
3.726
 20 
2.822
 11 
3.726
 21 
2.948
 0 
CIRCLE
 8 
0
 62 
 7 
 10 
3.89
 20 
3.095
 40 
0.05
 0 
CIRCLE
 8 
0
 62 
 7 
 10 
3.89
 20 
3.095
 40 
0.023
 0 
LINE
 8 
0
 62 
 7 
 10 
2.71
 20 
2.59
 11 
2.74
 21 
2.59
 0 
LINE
 8 
0
 62 
 7 
 10 
2.74
 20 
2.59
 11 
2.74
 21 
2.56
 0 
LINE
 8 
0
 62 
 7 
 10 
2.74
 20 
2.56
 11 
2.71
 21 
2.56
 0 
LINE
 8 
0
 62 
 7 
 10 
2.71
 20 
2.56
 11 
2.71
 21 
2.59
 0 
LINE
 8 
0
 62 
 7 
 10 
2.655
 20 
2.59
 11 
2.685
 21 
2.59
 0 
LINE
 8 
0
 62 
 7 
 10 
2.685
 20 
2.59
 11 
2.685
 21 
2.56
 0 
LINE
 8 
0
 62 
 7 
 10 
2.685
 20 
2.56
 11 
2.655
 21 
2.56
 0 
LINE
 8 
0
 62 
 7 
 10 
2.655
 20 
2.56
 11 
2.655
 21 
2.59
 0 
LINE
 8 
0
 62 
 7 
 10 
2.715
 20 
2.54
 11 
2.759
 21 
2.54
 0 
LINE
 8 
0
 62 
 7 
 10 
2.759
 20 
2.54
 11 
2.759
 21 
2.61
 0 
LINE
 8 
0
 62 
 7 
 10 
2.759
 20 
2.61
 11 
2.715
 21 
2.61
 0 
LINE
 8 
0
 62 
 7 
 10 
2.679
 20 
2.54
 11 
2.635
 21 
2.54
 0 
LINE
 8 
0
 62 
 7 
 10 
2.635
 20 
2.54
 11 
2.635
 21 
2.61
 0 
LINE
 8 
0
 62 
 7 
 10 
2.635
 20 
2.61
 11 
2.679
 21 
2.61
 0 
LINE
 8 
0
 62 
 7 
 10 
2.672
 20 
2.69
 11 
2.697
 21 
2.69
 0 
LINE
 8 
0
 62 
 7 
 10 
2.697
 20 
2.69
 11 
2.705
 21 
2.682
 0 
LINE
 8 
0
 62 
 7 
 10 
2.705
 20 
2.682
 11 
2.705
 21 
2.648
 0 
LINE
 8 
0
 62 
 7 
 10 
2.705
 20 
2.648
 11 
2.697
 21 
2.64
 0 
LINE
 8 
0
 62 
 7 
 10 
2.697
 20 
2.64
 11 
2.672
 21 
2.64
 0 
LINE
 8 
0
 62 
 7 
 10 
2.68
 20 
2.69
 11 
2.68
 21 
2.64
 0 
LINE
 8 
0
 62 
 7 
 10 
2.73
 20 
2.682
 11 
2.739
 21 
2.69
 0 
LINE
 8 
0
 62 
 7 
 10 
2.739
 20 
2.69
 11 
2.739
 21 
2.64
 0 
LINE
 8 
0
 62 
 7 
 10 
2.73
 20 
2.64
 11 
2.747
 21 
2.64
 0 
LINE
 8 
0
 62 
 7 
 10 
3.385
 20 
2.49
 11 
3.415
 21 
2.49
 0 
LINE
 8 
0
 62 
 7 
 10 
3.415
 20 
2.49
 11 
3.415
 21 
2.46
 0 
LINE
 8 
0
 62 
 7 
 10 
3.415
 20 
2.46
 11 
3.385
 21 
2.46
 0 
LINE
 8 
0
 62 
 7 
 10 
3.385
 20 
2.46
 11 
3.385
 21 
2.49
 0 
LINE
 8 
0
 62 
 7 
 10 
3.33
 20 
2.49
 11 
3.36
 21 
2.49
 0 
LINE
 8 
0
 62 
 7 
 10 
3.36
 20 
2.49
 11 
3.36
 21 
2.46
 0 
LINE
 8 
0
 62 
 7 
 10 
3.36
 20 
2.46
 11 
3.33
 21 
2.46
 0 
LINE
 8 
0
 62 
 7 
 10 
3.33
 20 
2.46
 11 
3.33
 21 
2.49
 0 
LINE
 8 
0
 62 
 7 
 10 
3.39
 20 
2.44
 11 
3.434
 21 
2.44
 0 
LINE
 8 
0
 62 
 7 
 10 
3.434
 20 
2.44
 11 
3.434
 21 
2.51
 0 
LINE
 8 
0
 62 
 7 
 10 
3.434
 20 
2.51
 11 
3.39
 21 
2.51
 0 
LINE
 8 
0
 62 
 7 
 10 
3.354
 20 
2.44
 11 
3.31
 21 
2.44
 0 
CIRCLE
 8 
0
 62 
 7 
 10 
3.705
 20 
3.095
 40 
0.05
 0 
CIRCLE
 8 
0
 62 
 7 
 10 
3.705
 20 
3.095
 40 
0.023
 0 
LINE
 8 
0
 62 
 7 
 10 
3.31
 20 
2.44
 11 
3.31
 21 
2.51
 0 
LINE
 8 
0
 62 
 7 
 10 
3.926
 20 
2.912
 11 
3.876
 21 
2.912
 0 
LINE
 8 
0
 62 
 7 
 10 
3.926
 20 
2.912
 11 
3.926
 21 
3.207
 0 
LINE
 8 
0
 62 
 7 
 10 
3.926
 20 
3.207
 11 
3.67
 21 
3.207
 0 
LINE
 8 
0
 62 
 7 
 10 
3.67
 20 
3.207
 11 
3.67
 21 
2.912
 0 
LINE
 8 
0
 62 
 7 
 10 
3.67
 20 
2.912
 11 
3.72
 21 
2.912
 0 
LINE
 8 
0
 62 
 7 
 10 
3.818
 20 
2.912
 11 
3.778
 21 
2.912
 0 
LINE
 8 
0
 62 
 7 
 10 
3.452
 20 
3.02
 11 
3.477
 21 
3.02
 0 
LINE
 8 
0
 62 
 7 
 10 
3.477
 20 
3.02
 11 
3.477
 21 
2.978
 0 
LINE
 8 
0
 62 
 7 
 10 
3.477
 20 
2.978
 11 
3.469
 21 
2.97
 0 
LINE
 8 
0
 62 
 7 
 10 
3.469
 20 
2.97
 11 
3.452
 21 
2.97
 0 
LINE
 8 
0
 62 
 7 
 10 
3.452
 20 
2.97
 11 
3.444
 21 
2.978
 0 
LINE
 8 
0
 62 
 7 
 10 
3.494
 20 
3.012
 11 
3.502
 21 
3.02
 0 
LINE
 8 
0
 62 
 7 
 10 
3.502
 20 
3.02
 11 
3.519
 21 
3.02
 0 
LINE
 8 
0
 62 
 7 
 10 
3.519
 20 
3.02
 11 
3.527
 21 
3.012
 0 
LINE
 8 
0
 62 
 7 
 10 
3.527
 20 
3.012
 11 
3.527
 21 
3.003
 0 
LINE
 8 
0
 62 
 7 
 10 
3.527
 20 
3.003
 11 
3.519
 21 
2.995
 0 
LINE
 8 
0
 62 
 7 
 10 
3.519
 20 
2.995
 11 
3.502
 21 
2.995
 0 
LINE
 8 
0
 62 
 7 
 10 
3.502
 20 
2.995
 11 
3.494
 21 
2.987
 0 
LINE
 8 
0
 62 
 7 
 10 
3.494
 20 
2.987
 11 
3.494
 21 
2.97
 0 
LINE
 8 
0
 62 
 7 
 10 
3.494
 20 
2.97
 11 
3.527
 21 
2.97
 0 
LINE
 8 
0
 62 
 7 
 10 
3.577
 20 
3.003
 11 
3.569
 21 
2.995
 0 
LINE
 8 
0
 62 
 7 
 10 
3.569
 20 
2.995
 11 
3.552
 21 
2.995
 0 
LINE
 8 
0
 62 
 7 
 10 
3.552
 20 
2.995
 11 
3.544
 21 
3.003
 0 
LINE
 8 
0
 62 
 7 
 10 
3.544
 20 
3.003
 11 
3.544
 21 
3.012
 0 
LINE
 8 
0
 62 
 7 
 10 
3.544
 20 
3.012
 11 
3.552
 21 
3.02
 0 
LINE
 8 
0
 62 
 7 
 10 
3.552
 20 
3.02
 11 
3.569
 21 
3.02
 0 
LINE
 8 
0
 62 
 7 
 10 
3.569
 20 
3.02
 11 
3.577
 21 
3.012
 0 
LINE
 8 
0
 62 
 7 
 10 
3.577
 20 
3.012
 11 
3.577
 21 
2.987
 0 
LINE
 8 
0
 62 
 7 
 10 
3.577
 20 
2.987
 11 
3.561
 21 
2.97
 0 
LINE
 8 
0
 62 
 7 
 10 
3.561
 20 
2.97
 11 
3.552
 21 
2.97
 0 
LINE
 8 
0
 62 
 7 
 10 
3.31
 20 
2.51
 11 
3.354
 21 
2.51
 0 
LINE
 8 
0
 62 
 7 
 10 
3.233
 20 
2.492
 11 
3.225
 21 
2.5
 0 
LINE
 8 
0
 62 
 7 
 10 
3.225
 20 
2.5
 11 
3.208
 21 
2.5
 0 
LINE
 8 
0
 62 
 7 
 10 
3.208
 20 
2.5
 11 
3.2
 21 
2.492
 0 
LINE
 8 
0
 62 
 7 
 10 
3.2
 20 
2.492
 11 
3.2
 21 
2.458
 0 
LINE
 8 
0
 62 
 7 
 10 
3.2
 20 
2.458
 11 
3.208
 21 
2.45
 0 
LINE
 8 
0
 62 
 7 
 10 
3.208
 20 
2.45
 11 
3.225
 21 
2.45
 0 
LINE
 8 
0
 62 
 7 
 10 
3.225
 20 
2.45
 11 
3.233
 21 
2.458
 0 
LINE
 8 
0
 62 
 7 
 10 
3.25
 20 
2.492
 11 
3.258
 21 
2.5
 0 
LINE
 8 
0
 62 
 7 
 10 
3.258
 20 
2.5
 11 
3.275
 21 
2.5
 0 
LINE
 8 
0
 62 
 7 
 10 
3.275
 20 
2.5
 11 
3.283
 21 
2.492
 0 
LINE
 8 
0
 62 
 7 
 10 
3.283
 20 
2.492
 11 
3.283
 21 
2.483
 0 
LINE
 8 
0
 62 
 7 
 10 
3.283
 20 
2.483
 11 
3.275
 21 
2.475
 0 
LINE
 8 
0
 62 
 7 
 10 
3.275
 20 
2.475
 11 
3.258
 21 
2.475
 0 
LINE
 8 
0
 62 
 7 
 10 
3.258
 20 
2.475
 11 
3.25
 21 
2.467
 0 
LINE
 8 
0
 62 
 7 
 10 
3.25
 20 
2.467
 11 
3.25
 21 
2.45
 0 
LINE
 8 
0
 62 
 7 
 10 
3.25
 20 
2.45
 11 
3.283
 21 
2.45
 0 
LINE
 8 
0
 62 
 7 
 10 
2.885
 20 
2.59
 11 
2.915
 21 
2.59
 0 
LINE
 8 
0
 62 
 7 
 10 
2.915
 20 
2.59
 11 
2.915
 21 
2.56
 0 
LINE
 8 
0
 62 
 7 
 10 
2.915
 20 
2.56
 11 
2.885
 21 
2.56
 0 
LINE
 8 
0
 62 
 7 
 10 
2.885
 20 
2.56
 11 
2.885
 21 
2.59
 0 
LINE
 8 
0
 62 
 7 
 10 
2.83
 20 
2.59
 11 
2.86
 21 
2.59
 0 
LINE
 8 
0
 62 
 7 
 10 
2.86
 20 
2.59
 11 
2.86
 21 
2.56
 0 
LINE
 8 
0
 62 
 7 
 10 
2.86
 20 
2.56
 11 
2.83
 21 
2.56
 0 
LINE
 8 
0
 62 
 7 
 10 
2.83
 20 
2.56
 11 
2.83
 21 
2.59
 0 
LINE
 8 
0
 62 
 7 
 10 
2.89
 20 
2.54
 11 
2.934
 21 
2.54
 0 
LINE
 8 
0
 62 
 7 
 10 
2.934
 20 
2.54
 11 
2.934
 21 
2.61
 0 
LINE
 8 
0
 62 
 7 
 10 
2.934
 20 
2.61
 11 
2.89
 21 
2.61
 0 
LINE
 8 
0
 62 
 7 
 10 
2.854
 20 
2.54
 11 
2.81
 21 
2.54
 0 
LINE
 8 
0
 62 
 7 
 10 
2.81
 20 
2.54
 11 
2.81
 21 
2.61
 0 
LINE
 8 
0
 62 
 7 
 10 
2.81
 20 
2.61
 11 
2.854
 21 
2.61
 0 
LINE
 8 
0
 62 
 7 
 10 
2.847
 20 
2.64
 11 
2.847
 21 
2.69
 0 
LINE
 8 
0
 62 
 7 
 10 
2.847
 20 
2.69
 11 
2.872
 21 
2.69
 0 
LINE
 8 
0
 62 
 7 
 10 
2.872
 20 
2.69
 11 
2.88
 21 
2.682
 0 
LINE
 8 
0
 62 
 7 
 10 
2.88
 20 
2.682
 11 
2.88
 21 
2.673
 0 
LINE
 8 
0
 62 
 7 
 10 
2.88
 20 
2.673
 11 
2.872
 21 
2.665
 0 
LINE
 8 
0
 62 
 7 
 10 
2.872
 20 
2.665
 11 
2.847
 21 
2.665
 0 
LINE
 8 
0
 62 
 7 
 10 
2.855
 20 
2.665
 11 
2.88
 21 
2.64
 0 
LINE
 8 
0
 62 
 7 
 10 
2.905
 20 
2.682
 11 
2.914
 21 
2.69
 0 
LINE
 8 
0
 62 
 7 
 10 
2.914
 20 
2.69
 11 
2.914
 21 
2.64
 0 
LINE
 8 
0
 62 
 7 
 10 
2.905
 20 
2.64
 11 
2.922
 21 
2.64
 0 
LINE
 8 
0
 62 
 7 
 10 
1.885
 20 
3.365
 11 
1.915
 21 
3.365
 0 
LINE
 8 
0
 62 
 7 
 10 
1.915
 20 
3.365
 11 
1.915
 21 
3.335
 0 
LINE
 8 
0
 62 
 7 
 10 
1.915
 20 
3.335
 11 
1.885
 21 
3.335
 0 
LINE
 8 
0
 62 
 7 
 10 
1.885
 20 
3.335
 11 
1.885
 21 
3.365
 0 
LINE
 8 
0
 62 
 7 
 10 
1.94
 20 
3.365
 11 
1.97
 21 
3.365
 0 
LINE
 8 
0
 62 
 7 
 10 
1.97
 20 
3.365
 11 
1.97
 21 
3.335
 0 
LINE
 8 
0
 62 
 7 
 10 
1.97
 20 
3.335
 11 
1.94
 21 
3.335
 0 
LINE
 8 
0
 62 
 7 
 10 
1.94
 20 
3.335
 11 
1.94
 21 
3.365
 0 
LINE
 8 
0
 62 
 7 
 10 
1.91
 20 
3.315
 11 
1.866
 21 
3.315
 0 
LINE
 8 
0
 62 
 7 
 10 
1.866
 20 
3.315
 11 
1.866
 21 
3.385
 0 
LINE
 8 
0
 62 
 7 
 10 
1.866
 20 
3.385
 11 
1.91
 21 
3.385
 0 
LINE
 8 
0
 62 
 7 
 10 
1.946
 20 
3.315
 11 
1.99
 21 
3.315
 0 
LINE
 8 
0
 62 
 7 
 10 
1.99
 20 
3.315
 11 
1.99
 21 
3.385
 0 
LINE
 8 
0
 62 
 7 
 10 
1.99
 20 
3.385
 11 
1.946
 21 
3.385
 0 
LINE
 8 
0
 62 
 7 
 10 
2.059
 20 
3.368
 11 
2.051
 21 
3.376
 0 
LINE
 8 
0
 62 
 7 
 10 
2.051
 20 
3.376
 11 
2.034
 21 
3.376
 0 
LINE
 8 
0
 62 
 7 
 10 
2.034
 20 
3.376
 11 
2.026
 21 
3.368
 0 
LINE
 8 
0
 62 
 7 
 10 
2.026
 20 
3.368
 11 
2.026
 21 
3.334
 0 
LINE
 8 
0
 62 
 7 
 10 
2.026
 20 
3.334
 11 
2.034
 21 
3.326
 0 
LINE
 8 
0
 62 
 7 
 10 
2.034
 20 
3.326
 11 
2.051
 21 
3.326
 0 
LINE
 8 
0
 62 
 7 
 10 
2.051
 20 
3.326
 11 
2.059
 21 
3.334
 0 
LINE
 8 
0
 62 
 7 
 10 
2.076
 20 
3.368
 11 
2.084
 21 
3.376
 0 
LINE
 8 
0
 62 
 7 
 10 
2.084
 20 
3.376
 11 
2.101
 21 
3.376
 0 
LINE
 8 
0
 62 
 7 
 10 
2.101
 20 
3.376
 11 
2.109
 21 
3.368
 0 
LINE
 8 
0
 62 
 7 
 10 
2.109
 20 
3.368
 11 
2.109
 21 
3.359
 0 
LINE
 8 
0
 62 
 7 
 10 
2.109
 20 
3.359
 11 
2.101
 21 
3.351
 0 
LINE
 8 
0
 62 
 7 
 10 
2.101
 20 
3.351
 11 
2.093
 21 
3.351
 0 
LINE
 8 
0
 62 
 7 
 10 
2.101
 20 
3.351
 11 
2.109
 21 
3.343
 0 
LINE
 8 
0
 62 
 7 
 10 
2.109
 20 
3.343
 11 
2.109
 21 
3.334
 0 
LINE
 8 
0
 62 
 7 
 10 
2.109
 20 
3.334
 11 
2.101
 21 
3.326
 0 
LINE
 8 
0
 62 
 7 
 10 
2.101
 20 
3.326
 11 
2.084
 21 
3.326
 0 
LINE
 8 
0
 62 
 7 
 10 
2.084
 20 
3.326
 11 
2.076
 21 
3.334
 0 
LINE
 8 
0
 62 
 7 
 10 
2.185
 20 
3.165
 11 
2.215
 21 
3.165
 0 
LINE
 8 
0
 62 
 7 
 10 
2.215
 20 
3.165
 11 
2.215
 21 
3.135
 0 
LINE
 8 
0
 62 
 7 
 10 
2.215
 20 
3.135
 11 
2.185
 21 
3.135
 0 
LINE
 8 
0
 62 
 7 
 10 
2.185
 20 
3.135
 11 
2.185
 21 
3.165
 0 
LINE
 8 
0
 62 
 7 
 10 
2.24
 20 
3.165
 11 
2.27
 21 
3.165
 0 
LINE
 8 
0
 62 
 7 
 10 
2.27
 20 
3.165
 11 
2.27
 21 
3.135
 0 
LINE
 8 
0
 62 
 7 
 10 
2.27
 20 
3.135
 11 
2.24
 21 
3.135
 0 
LINE
 8 
0
 62 
 7 
 10 
2.24
 20 
3.135
 11 
2.24
 21 
3.165
 0 
LINE
 8 
0
 62 
 7 
 10 
2.21
 20 
3.115
 11 
2.166
 21 
3.115
 0 
LINE
 8 
0
 62 
 7 
 10 
2.166
 20 
3.115
 11 
2.166
 21 
3.185
 0 
LINE
 8 
0
 62 
 7 
 10 
2.166
 20 
3.185
 11 
2.21
 21 
3.185
 0 
LINE
 8 
0
 62 
 7 
 10 
2.246
 20 
3.115
 11 
2.29
 21 
3.115
 0 
LINE
 8 
0
 62 
 7 
 10 
2.29
 20 
3.115
 11 
2.29
 21 
3.185
 0 
LINE
 8 
0
 62 
 7 
 10 
2.29
 20 
3.185
 11 
2.246
 21 
3.185
 0 
LINE
 8 
0
 62 
 7 
 10 
2.358
 20 
3.167
 11 
2.35
 21 
3.175
 0 
LINE
 8 
0
 62 
 7 
 10 
2.35
 20 
3.175
 11 
2.333
 21 
3.175
 0 
LINE
 8 
0
 62 
 7 
 10 
2.333
 20 
3.175
 11 
2.325
 21 
3.167
 0 
LINE
 8 
0
 62 
 7 
 10 
2.325
 20 
3.167
 11 
2.325
 21 
3.133
 0 
LINE
 8 
0
 62 
 7 
 10 
2.325
 20 
3.133
 11 
2.333
 21 
3.125
 0 
LINE
 8 
0
 62 
 7 
 10 
2.333
 20 
3.125
 11 
2.35
 21 
3.125
 0 
LINE
 8 
0
 62 
 7 
 10 
2.35
 20 
3.125
 11 
2.358
 21 
3.133
 0 
LINE
 8 
0
 62 
 7 
 10 
2.408
 20 
3.142
 11 
2.375
 21 
3.142
 0 
LINE
 8 
0
 62 
 7 
 10 
2.375
 20 
3.142
 11 
2.375
 21 
3.15
 0 
LINE
 8 
0
 62 
 7 
 10 
2.375
 20 
3.15
 11 
2.4
 21 
3.175
 0 
LINE
 8 
0
 62 
 7 
 10 
2.4
 20 
3.175
 11 
2.4
 21 
3.125
 0 
LINE
 8 
0
 62 
 7 
 10 
4.01
 20 
3.39
 11 
4.04
 21 
3.39
 0 
LINE
 8 
0
 62 
 7 
 10 
4.04
 20 
3.39
 11 
4.04
 21 
3.36
 0 
LINE
 8 
0
 62 
 7 
 10 
4.04
 20 
3.36
 11 
4.01
 21 
3.36
 0 
LINE
 8 
0
 62 
 7 
 10 
4.01
 20 
3.36
 11 
4.01
 21 
3.39
 0 
LINE
 8 
0
 62 
 7 
 10 
4.01
 20 
3.445
 11 
4.04
 21 
3.445
 0 
LINE
 8 
0
 62 
 7 
 10 
4.04
 20 
3.445
 11 
4.04
 21 
3.415
 0 
LINE
 8 
0
 62 
 7 
 10 
4.04
 20 
3.415
 11 
4.01
 21 
3.415
 0 
LINE
 8 
0
 62 
 7 
 10 
4.01
 20 
3.415
 11 
4.01
 21 
3.445
 0 
LINE
 8 
0
 62 
 7 
 10 
4.06
 20 
3.385
 11 
4.06
 21 
3.341
 0 
LINE
 8 
0
 62 
 7 
 10 
4.06
 20 
3.341
 11 
3.99
 21 
3.341
 0 
LINE
 8 
0
 62 
 7 
 10 
3.99
 20 
3.341
 11 
3.99
 21 
3.385
 0 
LINE
 8 
0
 62 
 7 
 10 
4.06
 20 
3.421
 11 
4.06
 21 
3.465
 0 
LINE
 8 
0
 62 
 7 
 10 
4.06
 20 
3.465
 11 
3.99
 21 
3.465
 0 
LINE
 8 
0
 62 
 7 
 10 
3.99
 20 
3.465
 11 
3.99
 21 
3.421
 0 
LINE
 8 
0
 62 
 7 
 10 
4.016
 20 
3.559
 11 
4.008
 21 
3.567
 0 
LINE
 8 
0
 62 
 7 
 10 
4.008
 20 
3.567
 11 
3.991
 21 
3.567
 0 
LINE
 8 
0
 62 
 7 
 10 
3.991
 20 
3.567
 11 
3.983
 21 
3.559
 0 
LINE
 8 
0
 62 
 7 
 10 
3.983
 20 
3.559
 11 
3.983
 21 
3.525
 0 
LINE
 8 
0
 62 
 7 
 10 
3.983
 20 
3.525
 11 
3.991
 21 
3.517
 0 
LINE
 8 
0
 62 
 7 
 10 
3.991
 20 
3.517
 11 
4.008
 21 
3.517
 0 
LINE
 8 
0
 62 
 7 
 10 
4.008
 20 
3.517
 11 
4.016
 21 
3.525
 0 
LINE
 8 
0
 62 
 7 
 10 
4.058
 20 
3.567
 11 
4.05
 21 
3.567
 0 
LINE
 8 
0
 62 
 7 
 10 
4.05
 20 
3.567
 11 
4.033
 21 
3.55
 0 
LINE
 8 
0
 62 
 7 
 10 
4.033
 20 
3.55
 11 
4.033
 21 
3.525
 0 
LINE
 8 
0
 62 
 7 
 10 
4.033
 20 
3.525
 11 
4.041
 21 
3.517
 0 
LINE
 8 
0
 62 
 7 
 10 
4.041
 20 
3.517
 11 
4.058
 21 
3.517
 0 
LINE
 8 
0
 62 
 7 
 10 
4.058
 20 
3.517
 11 
4.066
 21 
3.525
 0 
LINE
 8 
0
 62 
 7 
 10 
4.066
 20 
3.525
 11 
4.066
 21 
3.534
 0 
LINE
 8 
0
 62 
 7 
 10 
4.066
 20 
3.534
 11 
4.058
 21 
3.542
 0 
LINE
 8 
0
 62 
 7 
 10 
4.058
 20 
3.542
 11 
4.041
 21 
3.542
 0 
LINE
 8 
0
 62 
 7 
 10 
4.041
 20 
3.542
 11 
4.033
 21 
3.534
 0 
LINE
 8 
0
 62 
 7 
 10 
1.91
 20 
2.79
 11 
1.94
 21 
2.79
 0 
LINE
 8 
0
 62 
 7 
 10 
1.94
 20 
2.79
 11 
1.94
 21 
2.76
 0 
LINE
 8 
0
 62 
 7 
 10 
1.94
 20 
2.76
 11 
1.91
 21 
2.76
 0 
LINE
 8 
0
 62 
 7 
 10 
1.91
 20 
2.76
 11 
1.91
 21 
2.79
 0 
LINE
 8 
0
 62 
 7 
 10 
1.91
 20 
2.845
 11 
1.94
 21 
2.845
 0 
LINE
 8 
0
 62 
 7 
 10 
1.94
 20 
2.845
 11 
1.94
 21 
2.815
 0 
LINE
 8 
0
 62 
 7 
 10 
1.94
 20 
2.815
 11 
1.91
 21 
2.815
 0 
LINE
 8 
0
 62 
 7 
 10 
1.91
 20 
2.815
 11 
1.91
 21 
2.845
 0 
LINE
 8 
0
 62 
 7 
 10 
1.96
 20 
2.785
 11 
1.96
 21 
2.741
 0 
LINE
 8 
0
 62 
 7 
 10 
1.96
 20 
2.741
 11 
1.89
 21 
2.741
 0 
LINE
 8 
0
 62 
 7 
 10 
1.89
 20 
2.741
 11 
1.89
 21 
2.785
 0 
LINE
 8 
0
 62 
 7 
 10 
1.96
 20 
2.821
 11 
1.96
 21 
2.865
 0 
LINE
 8 
0
 62 
 7 
 10 
1.96
 20 
2.865
 11 
1.89
 21 
2.865
 0 
LINE
 8 
0
 62 
 7 
 10 
1.89
 20 
2.865
 11 
1.89
 21 
2.821
 0 
LINE
 8 
0
 62 
 7 
 10 
1.916
 20 
2.959
 11 
1.908
 21 
2.967
 0 
LINE
 8 
0
 62 
 7 
 10 
1.908
 20 
2.967
 11 
1.891
 21 
2.967
 0 
LINE
 8 
0
 62 
 7 
 10 
1.891
 20 
2.967
 11 
1.883
 21 
2.959
 0 
LINE
 8 
0
 62 
 7 
 10 
1.883
 20 
2.959
 11 
1.883
 21 
2.925
 0 
LINE
 8 
0
 62 
 7 
 10 
1.883
 20 
2.925
 11 
1.891
 21 
2.917
 0 
LINE
 8 
0
 62 
 7 
 10 
1.891
 20 
2.917
 11 
1.908
 21 
2.917
 0 
LINE
 8 
0
 62 
 7 
 10 
1.908
 20 
2.917
 11 
1.916
 21 
2.925
 0 
LINE
 8 
0
 62 
 7 
 10 
1.933
 20 
2.959
 11 
1.933
 21 
2.967
 0 
LINE
 8 
0
 62 
 7 
 10 
1.933
 20 
2.967
 11 
1.966
 21 
2.967
 0 
LINE
 8 
0
 62 
 7 
 10 
1.966
 20 
2.967
 11 
1.966
 21 
2.959
 0 
LINE
 8 
0
 62 
 7 
 10 
1.966
 20 
2.959
 11 
1.941
 21 
2.934
 0 
LINE
 8 
0
 62 
 7 
 10 
1.941
 20 
2.934
 11 
1.941
 21 
2.917
 0 
LINE
 8 
0
 62 
 7 
 10 
2.585
 20 
2.765
 11 
2.615
 21 
2.765
 0 
LINE
 8 
0
 62 
 7 
 10 
2.615
 20 
2.765
 11 
2.615
 21 
2.735
 0 
LINE
 8 
0
 62 
 7 
 10 
2.615
 20 
2.735
 11 
2.585
 21 
2.735
 0 
LINE
 8 
0
 62 
 7 
 10 
2.585
 20 
2.735
 11 
2.585
 21 
2.765
 0 
LINE
 8 
0
 62 
 7 
 10 
2.64
 20 
2.765
 11 
2.67
 21 
2.765
 0 
LINE
 8 
0
 62 
 7 
 10 
2.67
 20 
2.765
 11 
2.67
 21 
2.735
 0 
LINE
 8 
0
 62 
 7 
 10 
2.67
 20 
2.735
 11 
2.64
 21 
2.735
 0 
LINE
 8 
0
 62 
 7 
 10 
2.64
 20 
2.735
 11 
2.64
 21 
2.765
 0 
LINE
 8 
0
 62 
 7 
 10 
2.61
 20 
2.715
 11 
2.566
 21 
2.715
 0 
LINE
 8 
0
 62 
 7 
 10 
2.566
 20 
2.715
 11 
2.566
 21 
2.785
 0 
LINE
 8 
0
 62 
 7 
 10 
2.566
 20 
2.785
 11 
2.61
 21 
2.785
 0 
LINE
 8 
0
 62 
 7 
 10 
2.646
 20 
2.715
 11 
2.69
 21 
2.715
 0 
LINE
 8 
0
 62 
 7 
 10 
2.69
 20 
2.715
 11 
2.69
 21 
2.785
 0 
LINE
 8 
0
 62 
 7 
 10 
2.69
 20 
2.785
 11 
2.646
 21 
2.785
 0 
LINE
 8 
0
 62 
 7 
 10 
2.76
 20 
2.767
 11 
2.752
 21 
2.775
 0 
LINE
 8 
0
 62 
 7 
 10 
2.752
 20 
2.775
 11 
2.735
 21 
2.775
 0 
LINE
 8 
0
 62 
 7 
 10 
2.735
 20 
2.775
 11 
2.727
 21 
2.767
 0 
LINE
 8 
0
 62 
 7 
 10 
2.727
 20 
2.767
 11 
2.727
 21 
2.733
 0 
LINE
 8 
0
 62 
 7 
 10 
2.727
 20 
2.733
 11 
2.735
 21 
2.725
 0 
LINE
 8 
0
 62 
 7 
 10 
2.735
 20 
2.725
 11 
2.752
 21 
2.725
 0 
LINE
 8 
0
 62 
 7 
 10 
2.752
 20 
2.725
 11 
2.76
 21 
2.733
 0 
LINE
 8 
0
 62 
 7 
 10 
2.785
 20 
2.75
 11 
2.777
 21 
2.758
 0 
LINE
 8 
0
 62 
 7 
 10 
2.777
 20 
2.758
 11 
2.777
 21 
2.767
 0 
LINE
 8 
0
 62 
 7 
 10 
2.777
 20 
2.767
 11 
2.785
 21 
2.775
 0 
LINE
 8 
0
 62 
 7 
 10 
2.785
 20 
2.775
 11 
2.802
 21 
2.775
 0 
LINE
 8 
0
 62 
 7 
 10 
2.802
 20 
2.775
 11 
2.81
 21 
2.767
 0 
LINE
 8 
0
 62 
 7 
 10 
2.81
 20 
2.767
 11 
2.81
 21 
2.758
 0 
LINE
 8 
0
 62 
 7 
 10 
2.81
 20 
2.758
 11 
2.802
 21 
2.75
 0 
LINE
 8 
0
 62 
 7 
 10 
2.802
 20 
2.75
 11 
2.785
 21 
2.75
 0 
LINE
 8 
0
 62 
 7 
 10 
2.785
 20 
2.75
 11 
2.777
 21 
2.742
 0 
LINE
 8 
0
 62 
 7 
 10 
2.777
 20 
2.742
 11 
2.777
 21 
2.733
 0 
LINE
 8 
0
 62 
 7 
 10 
2.777
 20 
2.733
 11 
2.785
 21 
2.725
 0 
LINE
 8 
0
 62 
 7 
 10 
2.785
 20 
2.725
 11 
2.802
 21 
2.725
 0 
LINE
 8 
0
 62 
 7 
 10 
2.802
 20 
2.725
 11 
2.81
 21 
2.733
 0 
LINE
 8 
0
 62 
 7 
 10 
2.81
 20 
2.733
 11 
2.81
 21 
2.742
 0 
LINE
 8 
0
 62 
 7 
 10 
2.81
 20 
2.742
 11 
2.802
 21 
2.75
 0 
LINE
 8 
0
 62 
 7 
 10 
3.31
 20 
2.79
 11 
3.34
 21 
2.79
 0 
LINE
 8 
0
 62 
 7 
 10 
3.34
 20 
2.79
 11 
3.34
 21 
2.76
 0 
LINE
 8 
0
 62 
 7 
 10 
3.34
 20 
2.76
 11 
3.31
 21 
2.76
 0 
LINE
 8 
0
 62 
 7 
 10 
3.31
 20 
2.76
 11 
3.31
 21 
2.79
 0 
LINE
 8 
0
 62 
 7 
 10 
3.31
 20 
2.845
 11 
3.34
 21 
2.845
 0 
LINE
 8 
0
 62 
 7 
 10 
3.34
 20 
2.845
 11 
3.34
 21 
2.815
 0 
LINE
 8 
0
 62 
 7 
 10 
3.34
 20 
2.815
 11 
3.31
 21 
2.815
 0 
LINE
 8 
0
 62 
 7 
 10 
3.31
 20 
2.815
 11 
3.31
 21 
2.845
 0 
LINE
 8 
0
 62 
 7 
 10 
3.36
 20 
2.785
 11 
3.36
 21 
2.741
 0 
LINE
 8 
0
 62 
 7 
 10 
3.36
 20 
2.741
 11 
3.29
 21 
2.741
 0 
LINE
 8 
0
 62 
 7 
 10 
3.29
 20 
2.741
 11 
3.29
 21 
2.785
 0 
LINE
 8 
0
 62 
 7 
 10 
3.36
 20 
2.821
 11 
3.36
 21 
2.865
 0 
LINE
 8 
0
 62 
 7 
 10 
3.36
 20 
2.865
 11 
3.29
 21 
2.865
 0 
LINE
 8 
0
 62 
 7 
 10 
3.29
 20 
2.865
 11 
3.29
 21 
2.821
 0 
LINE
 8 
0
 62 
 7 
 10 
3.316
 20 
2.959
 11 
3.308
 21 
2.967
 0 
LINE
 8 
0
 62 
 7 
 10 
3.308
 20 
2.967
 11 
3.291
 21 
2.967
 0 
LINE
 8 
0
 62 
 7 
 10 
3.291
 20 
2.967
 11 
3.283
 21 
2.959
 0 
LINE
 8 
0
 62 
 7 
 10 
3.283
 20 
2.959
 11 
3.283
 21 
2.925
 0 
LINE
 8 
0
 62 
 7 
 10 
3.283
 20 
2.925
 11 
3.291
 21 
2.917
 0 
LINE
 8 
0
 62 
 7 
 10 
3.291
 20 
2.917
 11 
3.308
 21 
2.917
 0 
LINE
 8 
0
 62 
 7 
 10 
3.308
 20 
2.917
 11 
3.316
 21 
2.925
 0 
LINE
 8 
0
 62 
 7 
 10 
3.366
 20 
2.95
 11 
3.358
 21 
2.942
 0 
LINE
 8 
0
 62 
 7 
 10 
3.358
 20 
2.942
 11 
3.341
 21 
2.942
 0 
LINE
 8 
0
 62 
 7 
 10 
3.341
 20 
2.942
 11 
3.333
 21 
2.95
 0 
LINE
 8 
0
 62 
 7 
 10 
3.333
 20 
2.95
 11 
3.333
 21 
2.959
 0 
LINE
 8 
0
 62 
 7 
 10 
3.333
 20 
2.959
 11 
3.341
 21 
2.967
 0 
LINE
 8 
0
 62 
 7 
 10 
3.341
 20 
2.967
 11 
3.358
 21 
2.967
 0 
LINE
 8 
0
 62 
 7 
 10 
3.358
 20 
2.967
 11 
3.366
 21 
2.959
 0 
LINE
 8 
0
 62 
 7 
 10 
3.366
 20 
2.959
 11 
3.366
 21 
2.934
 0 
LINE
 8 
0
 62 
 7 
 10 
3.366
 20 
2.934
 11 
3.35
 21 
2.917
 0 
LINE
 8 
0
 62 
 7 
 10 
3.35
 20 
2.917
 11 
3.341
 21 
2.917
 0 
LINE
 8 
0
 62 
 7 
 10 
4.01
 20 
2.79
 11 
4.04
 21 
2.79
 0 
LINE
 8 
0
 62 
 7 
 10 
4.04
 20 
2.79
 11 
4.04
 21 
2.76
 0 
LINE
 8 
0
 62 
 7 
 10 
4.04
 20 
2.76
 11 
4.01
 21 
2.76
 0 
LINE
 8 
0
 62 
 7 
 10 
4.01
 20 
2.76
 11 
4.01
 21 
2.79
 0 
LINE
 8 
0
 62 
 7 
 10 
4.01
 20 
2.845
 11 
4.04
 21 
2.845
 0 
LINE
 8 
0
 62 
 7 
 10 
4.04
 20 
2.845
 11 
4.04
 21 
2.815
 0 
LINE
 8 
0
 62 
 7 
 10 
4.04
 20 
2.815
 11 
4.01
 21 
2.815
 0 
LINE
 8 
0
 62 
 7 
 10 
4.01
 20 
2.815
 11 
4.01
 21 
2.845
 0 
LINE
 8 
0
 62 
 7 
 10 
4.06
 20 
2.785
 11 
4.06
 21 
2.741
 0 
LINE
 8 
0
 62 
 7 
 10 
4.06
 20 
2.741
 11 
3.99
 21 
2.741
 0 
LINE
 8 
0
 62 
 7 
 10 
3.99
 20 
2.741
 11 
3.99
 21 
2.785
 0 
LINE
 8 
0
 62 
 7 
 10 
4.06
 20 
2.821
 11 
4.06
 21 
2.865
 0 
LINE
 8 
0
 62 
 7 
 10 
4.06
 20 
2.865
 11 
3.99
 21 
2.865
 0 
LINE
 8 
0
 62 
 7 
 10 
3.99
 20 
2.865
 11 
3.99
 21 
2.821
 0 
LINE
 8 
0
 62 
 7 
 10 
3.992
 20 
2.983
 11 
3.984
 21 
2.991
 0 
LINE
 8 
0
 62 
 7 
 10 
3.984
 20 
2.991
 11 
3.967
 21 
2.991
 0 
LINE
 8 
0
 62 
 7 
 10 
3.967
 20 
2.991
 11 
3.959
 21 
2.983
 0 
LINE
 8 
0
 62 
 7 
 10 
3.959
 20 
2.983
 11 
3.959
 21 
2.949
 0 
LINE
 8 
0
 62 
 7 
 10 
3.959
 20 
2.949
 11 
3.967
 21 
2.941
 0 
LINE
 8 
0
 62 
 7 
 10 
3.967
 20 
2.941
 11 
3.984
 21 
2.941
 0 
LINE
 8 
0
 62 
 7 
 10 
3.984
 20 
2.941
 11 
3.992
 21 
2.949
 0 
LINE
 8 
0
 62 
 7 
 10 
4.017
 20 
2.983
 11 
4.026
 21 
2.991
 0 
LINE
 8 
0
 62 
 7 
 10 
4.026
 20 
2.991
 11 
4.026
 21 
2.941
 0 
LINE
 8 
0
 62 
 7 
 10 
4.017
 20 
2.941
 11 
4.034
 21 
2.941
 0 
LINE
 8 
0
 62 
 7 
 10 
4.059
 20 
2.949
 11 
4.059
 21 
2.983
 0 
LINE
 8 
0
 62 
 7 
 10 
4.059
 20 
2.983
 11 
4.067
 21 
2.991
 0 
LINE
 8 
0
 62 
 7 
 10 
4.067
 20 
2.991
 11 
4.084
 21 
2.991
 0 
LINE
 8 
0
 62 
 7 
 10 
4.084
 20 
2.991
 11 
4.092
 21 
2.983
 0 
LINE
 8 
0
 62 
 7 
 10 
4.092
 20 
2.983
 11 
4.092
 21 
2.949
 0 
LINE
 8 
0
 62 
 7 
 10 
4.092
 20 
2.949
 11 
4.084
 21 
2.941
 0 
LINE
 8 
0
 62 
 7 
 10 
4.084
 20 
2.941
 11 
4.067
 21 
2.941
 0 
LINE
 8 
0
 62 
 7 
 10 
4.067
 20 
2.941
 11 
4.059
 21 
2.949
 0 
LINE
 8 
0
 62 
 7 
 10 
4.059
 20 
2.949
 11 
4.092
 21 
2.983
 0 
LINE
 8 
0
 62 
 7 
 10 
1.91
 20 
1.69
 11 
1.94
 21 
1.69
 0 
LINE
 8 
0
 62 
 7 
 10 
1.94
 20 
1.69
 11 
1.94
 21 
1.66
 0 
LINE
 8 
0
 62 
 7 
 10 
1.94
 20 
1.66
 11 
1.91
 21 
1.66
 0 
LINE
 8 
0
 62 
 7 
 10 
1.91
 20 
1.66
 11 
1.91
 21 
1.69
 0 
LINE
 8 
0
 62 
 7 
 10 
1.91
 20 
1.745
 11 
1.94
 21 
1.745
 0 
LINE
 8 
0
 62 
 7 
 10 
1.94
 20 
1.745
 11 
1.94
 21 
1.715
 0 
LINE
 8 
0
 62 
 7 
 10 
1.94
 20 
1.715
 11 
1.91
 21 
1.715
 0 
LINE
 8 
0
 62 
 7 
 10 
1.91
 20 
1.715
 11 
1.91
 21 
1.745
 0 
LINE
 8 
0
 62 
 7 
 10 
2.585
 20 
1.665
 11 
2.615
 21 
1.665
 0 
LINE
 8 
0
 62 
 7 
 10 
2.615
 20 
1.665
 11 
2.615
 21 
1.635
 0 
LINE
 8 
0
 62 
 7 
 10 
2.615
 20 
1.635
 11 
2.585
 21 
1.635
 0 
LINE
 8 
0
 62 
 7 
 10 
2.585
 20 
1.635
 11 
2.585
 21 
1.665
 0 
LINE
 8 
0
 62 
 7 
 10 
2.64
 20 
1.665
 11 
2.67
 21 
1.665
 0 
LINE
 8 
0
 62 
 7 
 10 
2.67
 20 
1.665
 11 
2.67
 21 
1.635
 0 
LINE
 8 
0
 62 
 7 
 10 
2.67
 20 
1.635
 11 
2.64
 21 
1.635
 0 
LINE
 8 
0
 62 
 7 
 10 
2.64
 20 
1.635
 11 
2.64
 21 
1.665
 0 
LINE
 8 
0
 62 
 7 
 10 
3.31
 20 
1.69
 11 
3.34
 21 
1.69
 0 
LINE
 8 
0
 62 
 7 
 10 
3.34
 20 
1.69
 11 
3.34
 21 
1.66
 0 
LINE
 8 
0
 62 
 7 
 10 
3.34
 20 
1.66
 11 
3.31
 21 
1.66
 0 
LINE
 8 
0
 62 
 7 
 10 
3.31
 20 
1.66
 11 
3.31
 21 
1.69
 0 
LINE
 8 
0
 62 
 7 
 10 
3.31
 20 
1.745
 11 
3.34
 21 
1.745
 0 
LINE
 8 
0
 62 
 7 
 10 
3.34
 20 
1.745
 11 
3.34
 21 
1.715
 0 
LINE
 8 
0
 62 
 7 
 10 
3.34
 20 
1.715
 11 
3.31
 21 
1.715
 0 
LINE
 8 
0
 62 
 7 
 10 
3.31
 20 
1.715
 11 
3.31
 21 
1.745
 0 
LINE
 8 
0
 62 
 7 
 10 
1.585
 20 
1.022
 11 
1.615
 21 
1.022
 0 
LINE
 8 
0
 62 
 7 
 10 
1.615
 20 
1.022
 11 
1.615
 21 
0.927
 0 
LINE
 8 
0
 62 
 7 
 10 
1.615
 20 
0.927
 11 
1.585
 21 
0.927
 0 
LINE
 8 
0
 62 
 7 
 10 
1.585
 20 
0.927
 11 
1.585
 21 
1.022
 0 
LINE
 8 
0
 62 
 7 
 10 
4.01
 20 
1.69
 11 
4.04
 21 
1.69
 0 
LINE
 8 
0
 62 
 7 
 10 
4.04
 20 
1.69
 11 
4.04
 21 
1.66
 0 
LINE
 8 
0
 62 
 7 
 10 
4.04
 20 
1.66
 11 
4.01
 21 
1.66
 0 
LINE
 8 
0
 62 
 7 
 10 
4.01
 20 
1.66
 11 
4.01
 21 
1.69
 0 
LINE
 8 
0
 62 
 7 
 10 
4.01
 20 
1.745
 11 
4.04
 21 
1.745
 0 
LINE
 8 
0
 62 
 7 
 10 
4.04
 20 
1.745
 11 
4.04
 21 
1.715
 0 
LINE
 8 
0
 62 
 7 
 10 
4.04
 20 
1.715
 11 
4.01
 21 
1.715
 0 
LINE
 8 
0
 62 
 7 
 10 
4.01
 20 
1.715
 11 
4.01
 21 
1.745
 0 
LINE
 8 
0
 62 
 7 
 10 
1.735
 20 
1.022
 11 
1.765
 21 
1.022
 0 
LINE
 8 
0
 62 
 7 
 10 
1.765
 20 
1.022
 11 
1.765
 21 
0.927
 0 
LINE
 8 
0
 62 
 7 
 10 
1.765
 20 
0.927
 11 
1.735
 21 
0.927
 0 
LINE
 8 
0
 62 
 7 
 10 
1.735
 20 
0.927
 11 
1.735
 21 
1.022
 0 
LINE
 8 
0
 62 
 7 
 10 
4.01
 20 
2.29
 11 
4.04
 21 
2.29
 0 
LINE
 8 
0
 62 
 7 
 10 
4.04
 20 
2.29
 11 
4.04
 21 
2.26
 0 
LINE
 8 
0
 62 
 7 
 10 
4.04
 20 
2.26
 11 
4.01
 21 
2.26
 0 
LINE
 8 
0
 62 
 7 
 10 
4.01
 20 
2.26
 11 
4.01
 21 
2.29
 0 
LINE
 8 
0
 62 
 7 
 10 
1.785
 20 
1.022
 11 
1.815
 21 
1.022
 0 
LINE
 8 
0
 62 
 7 
 10 
1.815
 20 
1.022
 11 
1.815
 21 
0.927
 0 
LINE
 8 
0
 62 
 7 
 10 
1.815
 20 
0.927
 11 
1.785
 21 
0.927
 0 
LINE
 8 
0
 62 
 7 
 10 
1.785
 20 
0.927
 11 
1.785
 21 
1.022
 0 
LINE
 8 
0
 62 
 7 
 10 
1.685
 20 
0.862
 11 
1.715
 21 
0.862
 0 
LINE
 8 
0
 62 
 7 
 10 
1.715
 20 
0.862
 11 
1.715
 21 
0.767
 0 
LINE
 8 
0
 62 
 7 
 10 
1.715
 20 
0.767
 11 
1.685
 21 
0.767
 0 
LINE
 8 
0
 62 
 7 
 10 
1.685
 20 
0.767
 11 
1.685
 21 
0.862
 0 
LINE
 8 
0
 62 
 7 
 10 
1.735
 20 
0.862
 11 
1.765
 21 
0.862
 0 
LINE
 8 
0
 62 
 7 
 10 
1.765
 20 
0.862
 11 
1.765
 21 
0.767
 0 
LINE
 8 
0
 62 
 7 
 10 
1.765
 20 
0.767
 11 
1.735
 21 
0.767
 0 
LINE
 8 
0
 62 
 7 
 10 
1.735
 20 
0.767
 11 
1.735
 21 
0.862
 0 
LINE
 8 
0
 62 
 7 
 10 
1.785
 20 
0.862
 11 
1.815
 21 
0.862
 0 
LINE
 8 
0
 62 
 7 
 10 
1.815
 20 
0.862
 11 
1.815
 21 
0.767
 0 
LINE
 8 
0
 62 
 7 
 10 
1.815
 20 
0.767
 11 
1.785
 21 
0.767
 0 
LINE
 8 
0
 62 
 7 
 10 
1.785
 20 
0.767
 11 
1.785
 21 
0.862
 0 
LINE
 8 
0
 62 
 7 
 10 
1.635
 20 
0.862
 11 
1.665
 21 
0.862
 0 
LINE
 8 
0
 62 
 7 
 10 
1.665
 20 
0.862
 11 
1.665
 21 
0.767
 0 
LINE
 8 
0
 62 
 7 
 10 
1.665
 20 
0.767
 11 
1.635
 21 
0.767
 0 
LINE
 8 
0
 62 
 7 
 10 
1.635
 20 
0.767
 11 
1.635
 21 
0.862
 0 
LINE
 8 
0
 62 
 7 
 10 
1.585
 20 
0.862
 11 
1.615
 21 
0.862
 0 
LINE
 8 
0
 62 
 7 
 10 
1.615
 20 
0.862
 11 
1.615
 21 
0.767
 0 
LINE
 8 
0
 62 
 7 
 10 
1.615
 20 
0.767
 11 
1.585
 21 
0.767
 0 
LINE
 8 
0
 62 
 7 
 10 
1.585
 20 
0.767
 11 
1.585
 21 
0.862
 0 
LINE
 8 
0
 62 
 7 
 10 
1.82
 20 
0.795
 11 
2.0
 21 
0.795
 0 
LINE
 8 
0
 62 
 7 
 10 
2.0
 20 
0.995
 11 
1.82
 21 
0.995
 0 
LINE
 8 
0
 62 
 7 
 10 
4.01
 20 
2.345
 11 
4.04
 21 
2.345
 0 
LINE
 8 
0
 62 
 7 
 10 
4.04
 20 
2.345
 11 
4.04
 21 
2.315
 0 
LINE
 8 
0
 62 
 7 
 10 
4.04
 20 
2.315
 11 
4.01
 21 
2.315
 0 
LINE
 8 
0
 62 
 7 
 10 
4.01
 20 
2.315
 11 
4.01
 21 
2.345
 0 
LINE
 8 
0
 62 
 7 
 10 
3.31
 20 
2.29
 11 
3.34
 21 
2.29
 0 
LINE
 8 
0
 62 
 7 
 10 
3.34
 20 
2.29
 11 
3.34
 21 
2.26
 0 
LINE
 8 
0
 62 
 7 
 10 
3.34
 20 
2.26
 11 
3.31
 21 
2.26
 0 
LINE
 8 
0
 62 
 7 
 10 
3.31
 20 
2.26
 11 
3.31
 21 
2.29
 0 
LINE
 8 
0
 62 
 7 
 10 
3.31
 20 
2.345
 11 
3.34
 21 
2.345
 0 
LINE
 8 
0
 62 
 7 
 10 
3.34
 20 
2.345
 11 
3.34
 21 
2.315
 0 
LINE
 8 
0
 62 
 7 
 10 
3.34
 20 
2.315
 11 
3.31
 21 
2.315
 0 
LINE
 8 
0
 62 
 7 
 10 
3.31
 20 
2.315
 11 
3.31
 21 
2.345
 0 
LINE
 8 
0
 62 
 7 
 10 
2.66
 20 
2.365
 11 
2.69
 21 
2.365
 0 
LINE
 8 
0
 62 
 7 
 10 
2.69
 20 
2.365
 11 
2.69
 21 
2.335
 0 
LINE
 8 
0
 62 
 7 
 10 
2.69
 20 
2.335
 11 
2.66
 21 
2.335
 0 
LINE
 8 
0
 62 
 7 
 10 
2.66
 20 
2.335
 11 
2.66
 21 
2.365
 0 
LINE
 8 
0
 62 
 7 
 10 
2.715
 20 
2.365
 11 
2.745
 21 
2.365
 0 
LINE
 8 
0
 62 
 7 
 10 
2.745
 20 
2.365
 11 
2.745
 21 
2.335
 0 
LINE
 8 
0
 62 
 7 
 10 
2.745
 20 
2.335
 11 
2.715
 21 
2.335
 0 
LINE
 8 
0
 62 
 7 
 10 
2.715
 20 
2.335
 11 
2.715
 21 
2.365
 0 
LINE
 8 
0
 62 
 7 
 10 
1.885
 20 
2.265
 11 
1.915
 21 
2.265
 0 
LINE
 8 
0
 62 
 7 
 10 
1.915
 20 
2.265
 11 
1.915
 21 
2.235
 0 
LINE
 8 
0
 62 
 7 
 10 
1.915
 20 
2.235
 11 
1.885
 21 
2.235
 0 
LINE
 8 
0
 62 
 7 
 10 
1.885
 20 
2.235
 11 
1.885
 21 
2.265
 0 
LINE
 8 
0
 62 
 7 
 10 
1.94
 20 
2.265
 11 
1.97
 21 
2.265
 0 
LINE
 8 
0
 62 
 7 
 10 
1.97
 20 
2.265
 11 
1.97
 21 
2.235
 0 
LINE
 8 
0
 62 
 7 
 10 
1.97
 20 
2.235
 11 
1.94
 21 
2.235
 0 
LINE
 8 
0
 62 
 7 
 10 
1.94
 20 
2.235
 11 
1.94
 21 
2.265
 0 
LINE
 8 
0
 62 
 7 
 10 
1.62
 20 
0.995
 11 
1.63
 21 
0.995
 0 
LINE
 8 
0
 62 
 7 
 10 
2.663
 20 
2.518
 11 
2.663
 21 
2.492
 0 
LINE
 8 
0
 62 
 7 
 10 
2.65
 20 
2.505
 11 
2.677
 21 
2.505
 0 
LINE
 8 
0
 62 
 7 
 10 
2.71
 20 
2.525
 11 
2.703
 21 
2.525
 0 
LINE
 8 
0
 62 
 7 
 10 
2.703
 20 
2.525
 11 
2.69
 21 
2.512
 0 
LINE
 8 
0
 62 
 7 
 10 
2.69
 20 
2.512
 11 
2.69
 21 
2.492
 0 
LINE
 8 
0
 62 
 7 
 10 
2.69
 20 
2.492
 11 
2.697
 21 
2.485
 0 
LINE
 8 
0
 62 
 7 
 10 
2.697
 20 
2.485
 11 
2.71
 21 
2.485
 0 
LINE
 8 
0
 62 
 7 
 10 
2.71
 20 
2.485
 11 
2.717
 21 
2.492
 0 
LINE
 8 
0
 62 
 7 
 10 
2.717
 20 
2.492
 11 
2.717
 21 
2.498
 0 
LINE
 8 
0
 62 
 7 
 10 
2.717
 20 
2.498
 11 
2.71
 21 
2.505
 0 
LINE
 8 
0
 62 
 7 
 10 
2.71
 20 
2.505
 11 
2.697
 21 
2.505
 0 
LINE
 8 
0
 62 
 7 
 10 
2.697
 20 
2.505
 11 
2.69
 21 
2.498
 0 
LINE
 8 
0
 62 
 7 
 10 
2.73
 20 
2.525
 11 
2.73
 21 
2.505
 0 
LINE
 8 
0
 62 
 7 
 10 
2.73
 20 
2.505
 11 
2.743
 21 
2.492
 0 
LINE
 8 
0
 62 
 7 
 10 
2.743
 20 
2.492
 11 
2.757
 21 
2.505
 0 
LINE
 8 
0
 62 
 7 
 10 
2.757
 20 
2.505
 11 
2.757
 21 
2.525
 0 
LINE
 8 
0
 62 
 7 
 10 
2.743
 20 
2.492
 11 
2.743
 21 
2.485
 0 
LINE
 8 
0
 62 
 7 
 10 
1.96
 20 
1.685
 11 
1.96
 21 
1.641
 0 
LINE
 8 
0
 62 
 7 
 10 
1.67
 20 
0.995
 11 
1.68
 21 
0.995
 0 
LINE
 8 
0
 62 
 7 
 10 
1.72
 20 
0.995
 11 
1.73
 21 
0.995
 0 
LINE
 8 
0
 62 
 7 
 10 
1.77
 20 
0.995
 11 
1.78
 21 
0.995
 0 
LINE
 8 
0
 62 
 7 
 10 
1.62
 20 
0.795
 11 
1.63
 21 
0.795
 0 
LINE
 8 
0
 62 
 7 
 10 
1.77
 20 
0.795
 11 
1.78
 21 
0.795
 0 
LINE
 8 
0
 62 
 7 
 10 
2.014
 20 
0.945
 11 
2.039
 21 
0.945
 0 
LINE
 8 
0
 62 
 7 
 10 
2.039
 20 
0.945
 11 
2.039
 21 
0.903
 0 
LINE
 8 
0
 62 
 7 
 10 
2.039
 20 
0.903
 11 
2.031
 21 
0.895
 0 
LINE
 8 
0
 62 
 7 
 10 
2.031
 20 
0.895
 11 
2.014
 21 
0.895
 0 
LINE
 8 
0
 62 
 7 
 10 
2.014
 20 
0.895
 11 
2.006
 21 
0.903
 0 
LINE
 8 
0
 62 
 7 
 10 
2.056
 20 
0.937
 11 
2.064
 21 
0.945
 0 
LINE
 8 
0
 62 
 7 
 10 
2.064
 20 
0.945
 11 
2.081
 21 
0.945
 0 
LINE
 8 
0
 62 
 7 
 10 
2.081
 20 
0.945
 11 
2.089
 21 
0.937
 0 
LINE
 8 
0
 62 
 7 
 10 
2.089
 20 
0.937
 11 
2.089
 21 
0.928
 0 
LINE
 8 
0
 62 
 7 
 10 
2.089
 20 
0.928
 11 
2.081
 21 
0.92
 0 
LINE
 8 
0
 62 
 7 
 10 
2.081
 20 
0.92
 11 
2.073
 21 
0.92
 0 
LINE
 8 
0
 62 
 7 
 10 
2.081
 20 
0.92
 11 
2.089
 21 
0.912
 0 
LINE
 8 
0
 62 
 7 
 10 
2.089
 20 
0.912
 11 
2.089
 21 
0.903
 0 
LINE
 8 
0
 62 
 7 
 10 
2.089
 20 
0.903
 11 
2.081
 21 
0.895
 0 
LINE
 8 
0
 62 
 7 
 10 
2.081
 20 
0.895
 11 
2.064
 21 
0.895
 0 
LINE
 8 
0
 62 
 7 
 10 
2.064
 20 
0.895
 11 
2.056
 21 
0.903
 0 
LINE
 8 
0
 62 
 7 
 10 
2.014
 20 
3.145
 11 
2.039
 21 
3.145
 0 
LINE
 8 
0
 62 
 7 
 10 
2.039
 20 
3.145
 11 
2.039
 21 
3.103
 0 
LINE
 8 
0
 62 
 7 
 10 
2.039
 20 
3.103
 11 
2.031
 21 
3.095
 0 
LINE
 8 
0
 62 
 7 
 10 
2.031
 20 
3.095
 11 
2.014
 21 
3.095
 0 
LINE
 8 
0
 62 
 7 
 10 
2.014
 20 
3.095
 11 
2.006
 21 
3.103
 0 
LINE
 8 
0
 62 
 7 
 10 
2.064
 20 
3.137
 11 
2.073
 21 
3.145
 0 
LINE
 8 
0
 62 
 7 
 10 
2.073
 20 
3.145
 11 
2.073
 21 
3.095
 0 
LINE
 8 
0
 62 
 7 
 10 
2.064
 20 
3.095
 11 
2.081
 21 
3.095
 0 
LINE
 8 
0
 62 
 7 
 10 
1.735
 20 
1.962
 11 
1.765
 21 
1.962
 0 
LINE
 8 
0
 62 
 7 
 10 
1.765
 20 
1.962
 11 
1.765
 21 
1.867
 0 
LINE
 8 
0
 62 
 7 
 10 
1.765
 20 
1.867
 11 
1.735
 21 
1.867
 0 
LINE
 8 
0
 62 
 7 
 10 
1.735
 20 
1.867
 11 
1.735
 21 
1.962
 0 
LINE
 8 
0
 62 
 7 
 10 
1.785
 20 
1.962
 11 
1.815
 21 
1.962
 0 
LINE
 8 
0
 62 
 7 
 10 
1.815
 20 
1.962
 11 
1.815
 21 
1.867
 0 
LINE
 8 
0
 62 
 7 
 10 
1.815
 20 
1.867
 11 
1.785
 21 
1.867
 0 
LINE
 8 
0
 62 
 7 
 10 
1.785
 20 
1.867
 11 
1.785
 21 
1.962
 0 
LINE
 8 
0
 62 
 7 
 10 
1.635
 20 
1.962
 11 
1.665
 21 
1.962
 0 
LINE
 8 
0
 62 
 7 
 10 
1.665
 20 
1.962
 11 
1.665
 21 
1.867
 0 
LINE
 8 
0
 62 
 7 
 10 
1.665
 20 
1.867
 11 
1.635
 21 
1.867
 0 
LINE
 8 
0
 62 
 7 
 10 
1.635
 20 
1.867
 11 
1.635
 21 
1.962
 0 
LINE
 8 
0
 62 
 7 
 10 
1.585
 20 
1.962
 11 
1.615
 21 
1.962
 0 
LINE
 8 
0
 62 
 7 
 10 
1.615
 20 
1.962
 11 
1.615
 21 
1.867
 0 
LINE
 8 
0
 62 
 7 
 10 
1.615
 20 
1.867
 11 
1.585
 21 
1.867
 0 
LINE
 8 
0
 62 
 7 
 10 
1.585
 20 
1.867
 11 
1.585
 21 
1.962
 0 
LINE
 8 
0
 62 
 7 
 10 
1.82
 20 
1.895
 11 
2.0
 21 
1.895
 0 
LINE
 8 
0
 62 
 7 
 10 
2.0
 20 
2.095
 11 
1.82
 21 
2.095
 0 
LINE
 8 
0
 62 
 7 
 10 
1.62
 20 
2.095
 11 
1.63
 21 
2.095
 0 
LINE
 8 
0
 62 
 7 
 10 
1.67
 20 
2.095
 11 
1.68
 21 
2.095
 0 
LINE
 8 
0
 62 
 7 
 10 
1.72
 20 
2.095
 11 
1.73
 21 
2.095
 0 
LINE
 8 
0
 62 
 7 
 10 
1.77
 20 
2.095
 11 
1.78
 21 
2.095
 0 
LINE
 8 
0
 62 
 7 
 10 
1.62
 20 
1.895
 11 
1.63
 21 
1.895
 0 
LINE
 8 
0
 62 
 7 
 10 
1.77
 20 
1.895
 11 
1.78
 21 
1.895
 0 
LINE
 8 
0
 62 
 7 
 10 
2.014
 20 
2.045
 11 
2.039
 21 
2.045
 0 
LINE
 8 
0
 62 
 7 
 10 
2.039
 20 
2.045
 11 
2.039
 21 
2.003
 0 
LINE
 8 
0
 62 
 7 
 10 
2.039
 20 
2.003
 11 
2.031
 21 
1.995
 0 
LINE
 8 
0
 62 
 7 
 10 
2.031
 20 
1.995
 11 
2.014
 21 
1.995
 0 
LINE
 8 
0
 62 
 7 
 10 
2.014
 20 
1.995
 11 
2.006
 21 
2.003
 0 
LINE
 8 
0
 62 
 7 
 10 
2.056
 20 
2.037
 11 
2.064
 21 
2.045
 0 
LINE
 8 
0
 62 
 7 
 10 
2.064
 20 
2.045
 11 
2.081
 21 
2.045
 0 
LINE
 8 
0
 62 
 7 
 10 
2.081
 20 
2.045
 11 
2.089
 21 
2.037
 0 
LINE
 8 
0
 62 
 7 
 10 
2.089
 20 
2.037
 11 
2.089
 21 
2.028
 0 
LINE
 8 
0
 62 
 7 
 10 
2.089
 20 
2.028
 11 
2.081
 21 
2.02
 0 
LINE
 8 
0
 62 
 7 
 10 
2.081
 20 
2.02
 11 
2.064
 21 
2.02
 0 
LINE
 8 
0
 62 
 7 
 10 
2.064
 20 
2.02
 11 
2.056
 21 
2.012
 0 
LINE
 8 
0
 62 
 7 
 10 
2.056
 20 
2.012
 11 
2.056
 21 
1.995
 0 
LINE
 8 
0
 62 
 7 
 10 
2.056
 20 
1.995
 11 
2.089
 21 
1.995
 0 
LINE
 8 
0
 62 
 7 
 10 
2.82
 20 
2.995
 11 
2.83
 21 
2.995
 0 
LINE
 8 
0
 62 
 7 
 10 
3.064
 20 
3.145
 11 
3.089
 21 
3.145
 0 
LINE
 8 
0
 62 
 7 
 10 
3.089
 20 
3.145
 11 
3.089
 21 
3.103
 0 
LINE
 8 
0
 62 
 7 
 10 
3.089
 20 
3.103
 11 
3.081
 21 
3.095
 0 
LINE
 8 
0
 62 
 7 
 10 
3.081
 20 
3.095
 11 
3.064
 21 
3.095
 0 
LINE
 8 
0
 62 
 7 
 10 
3.064
 20 
3.095
 11 
3.056
 21 
3.103
 0 
LINE
 8 
0
 62 
 7 
 10 
3.139
 20 
3.112
 11 
3.106
 21 
3.112
 0 
LINE
 8 
0
 62 
 7 
 10 
3.106
 20 
3.112
 11 
3.106
 21 
3.12
 0 
LINE
 8 
0
 62 
 7 
 10 
3.106
 20 
3.12
 11 
3.131
 21 
3.145
 0 
LINE
 8 
0
 62 
 7 
 10 
3.131
 20 
3.145
 11 
3.131
 21 
3.095
 0 
LINE
 8 
0
 62 
 7 
 10 
1.96
 20 
1.641
 11 
1.89
 21 
1.641
 0 
LINE
 8 
0
 62 
 7 
 10 
1.89
 20 
1.641
 11 
1.89
 21 
1.685
 0 
LINE
 8 
0
 62 
 7 
 10 
1.96
 20 
1.721
 11 
1.96
 21 
1.765
 0 
LINE
 8 
0
 62 
 7 
 10 
1.96
 20 
1.765
 11 
1.89
 21 
1.765
 0 
LINE
 8 
0
 62 
 7 
 10 
1.89
 20 
1.765
 11 
1.89
 21 
1.721
 0 
LINE
 8 
0
 62 
 7 
 10 
1.916
 20 
1.859
 11 
1.908
 21 
1.867
 0 
LINE
 8 
0
 62 
 7 
 10 
1.908
 20 
1.867
 11 
1.891
 21 
1.867
 0 
LINE
 8 
0
 62 
 7 
 10 
1.891
 20 
1.867
 11 
1.883
 21 
1.859
 0 
LINE
 8 
0
 62 
 7 
 10 
1.883
 20 
1.859
 11 
1.883
 21 
1.825
 0 
LINE
 8 
0
 62 
 7 
 10 
1.883
 20 
1.825
 11 
1.891
 21 
1.817
 0 
LINE
 8 
0
 62 
 7 
 10 
1.891
 20 
1.817
 11 
1.908
 21 
1.817
 0 
LINE
 8 
0
 62 
 7 
 10 
1.908
 20 
1.817
 11 
1.916
 21 
1.825
 0 
LINE
 8 
0
 62 
 7 
 10 
1.941
 20 
1.859
 11 
1.95
 21 
1.867
 0 
LINE
 8 
0
 62 
 7 
 10 
1.95
 20 
1.867
 11 
1.95
 21 
1.817
 0 
LINE
 8 
0
 62 
 7 
 10 
1.941
 20 
1.817
 11 
1.958
 21 
1.817
 0 
LINE
 8 
0
 62 
 7 
 10 
2.016
 20 
1.867
 11 
1.983
 21 
1.867
 0 
LINE
 8 
0
 62 
 7 
 10 
1.983
 20 
1.867
 11 
1.983
 21 
1.85
 0 
LINE
 8 
0
 62 
 7 
 10 
1.983
 20 
1.85
 11 
2.008
 21 
1.85
 0 
LINE
 8 
0
 62 
 7 
 10 
2.008
 20 
1.85
 11 
2.016
 21 
1.842
 0 
LINE
 8 
0
 62 
 7 
 10 
2.016
 20 
1.842
 11 
2.016
 21 
1.825
 0 
LINE
 8 
0
 62 
 7 
 10 
2.016
 20 
1.825
 11 
2.008
 21 
1.817
 0 
LINE
 8 
0
 62 
 7 
 10 
2.008
 20 
1.817
 11 
1.991
 21 
1.817
 0 
LINE
 8 
0
 62 
 7 
 10 
1.991
 20 
1.817
 11 
1.983
 21 
1.825
 0 
LINE
 8 
0
 62 
 7 
 10 
2.61
 20 
1.615
 11 
2.566
 21 
1.615
 0 
LINE
 8 
0
 62 
 7 
 10 
2.566
 20 
1.615
 11 
2.566
 21 
1.685
 0 
LINE
 8 
0
 62 
 7 
 10 
2.566
 20 
1.685
 11 
2.61
 21 
1.685
 0 
LINE
 8 
0
 62 
 7 
 10 
2.646
 20 
1.615
 11 
2.69
 21 
1.615
 0 
LINE
 8 
0
 62 
 7 
 10 
2.69
 20 
1.615
 11 
2.69
 21 
1.685
 0 
LINE
 8 
0
 62 
 7 
 10 
2.69
 20 
1.685
 11 
2.646
 21 
1.685
 0 
LINE
 8 
0
 62 
 7 
 10 
2.76
 20 
1.667
 11 
2.752
 21 
1.675
 0 
LINE
 8 
0
 62 
 7 
 10 
2.752
 20 
1.675
 11 
2.735
 21 
1.675
 0 
LINE
 8 
0
 62 
 7 
 10 
2.735
 20 
1.675
 11 
2.727
 21 
1.667
 0 
LINE
 8 
0
 62 
 7 
 10 
2.727
 20 
1.667
 11 
2.727
 21 
1.633
 0 
LINE
 8 
0
 62 
 7 
 10 
2.727
 20 
1.633
 11 
2.735
 21 
1.625
 0 
LINE
 8 
0
 62 
 7 
 10 
2.735
 20 
1.625
 11 
2.752
 21 
1.625
 0 
LINE
 8 
0
 62 
 7 
 10 
2.752
 20 
1.625
 11 
2.76
 21 
1.633
 0 
LINE
 8 
0
 62 
 7 
 10 
2.785
 20 
1.667
 11 
2.794
 21 
1.675
 0 
LINE
 8 
0
 62 
 7 
 10 
2.794
 20 
1.675
 11 
2.794
 21 
1.625
 0 
LINE
 8 
0
 62 
 7 
 10 
2.785
 20 
1.625
 11 
2.802
 21 
1.625
 0 
LINE
 8 
0
 62 
 7 
 10 
2.852
 20 
1.675
 11 
2.844
 21 
1.675
 0 
LINE
 8 
0
 62 
 7 
 10 
2.844
 20 
1.675
 11 
2.827
 21 
1.658
 0 
LINE
 8 
0
 62 
 7 
 10 
2.827
 20 
1.658
 11 
2.827
 21 
1.633
 0 
LINE
 8 
0
 62 
 7 
 10 
2.827
 20 
1.633
 11 
2.835
 21 
1.625
 0 
LINE
 8 
0
 62 
 7 
 10 
2.835
 20 
1.625
 11 
2.852
 21 
1.625
 0 
LINE
 8 
0
 62 
 7 
 10 
2.852
 20 
1.625
 11 
2.86
 21 
1.633
 0 
LINE
 8 
0
 62 
 7 
 10 
2.86
 20 
1.633
 11 
2.86
 21 
1.642
 0 
LINE
 8 
0
 62 
 7 
 10 
2.86
 20 
1.642
 11 
2.852
 21 
1.65
 0 
LINE
 8 
0
 62 
 7 
 10 
2.852
 20 
1.65
 11 
2.835
 21 
1.65
 0 
LINE
 8 
0
 62 
 7 
 10 
2.835
 20 
1.65
 11 
2.827
 21 
1.642
 0 
LINE
 8 
0
 62 
 7 
 10 
3.36
 20 
1.685
 11 
3.36
 21 
1.641
 0 
LINE
 8 
0
 62 
 7 
 10 
3.36
 20 
1.641
 11 
3.29
 21 
1.641
 0 
LINE
 8 
0
 62 
 7 
 10 
3.29
 20 
1.641
 11 
3.29
 21 
1.685
 0 
LINE
 8 
0
 62 
 7 
 10 
3.36
 20 
1.721
 11 
3.36
 21 
1.765
 0 
LINE
 8 
0
 62 
 7 
 10 
3.36
 20 
1.765
 11 
3.29
 21 
1.765
 0 
LINE
 8 
0
 62 
 7 
 10 
3.29
 20 
1.765
 11 
3.29
 21 
1.721
 0 
LINE
 8 
0
 62 
 7 
 10 
3.316
 20 
1.859
 11 
3.308
 21 
1.867
 0 
LINE
 8 
0
 62 
 7 
 10 
3.308
 20 
1.867
 11 
3.291
 21 
1.867
 0 
LINE
 8 
0
 62 
 7 
 10 
3.291
 20 
1.867
 11 
3.283
 21 
1.859
 0 
LINE
 8 
0
 62 
 7 
 10 
3.283
 20 
1.859
 11 
3.283
 21 
1.825
 0 
LINE
 8 
0
 62 
 7 
 10 
3.283
 20 
1.825
 11 
3.291
 21 
1.817
 0 
LINE
 8 
0
 62 
 7 
 10 
3.291
 20 
1.817
 11 
3.308
 21 
1.817
 0 
LINE
 8 
0
 62 
 7 
 10 
3.308
 20 
1.817
 11 
3.316
 21 
1.825
 0 
LINE
 8 
0
 62 
 7 
 10 
3.341
 20 
1.859
 11 
3.35
 21 
1.867
 0 
LINE
 8 
0
 62 
 7 
 10 
3.35
 20 
1.867
 11 
3.35
 21 
1.817
 0 
LINE
 8 
0
 62 
 7 
 10 
3.341
 20 
1.817
 11 
3.358
 21 
1.817
 0 
LINE
 8 
0
 62 
 7 
 10 
3.383
 20 
1.859
 11 
3.383
 21 
1.867
 0 
LINE
 8 
0
 62 
 7 
 10 
3.383
 20 
1.867
 11 
3.416
 21 
1.867
 0 
LINE
 8 
0
 62 
 7 
 10 
3.416
 20 
1.867
 11 
3.416
 21 
1.859
 0 
LINE
 8 
0
 62 
 7 
 10 
3.416
 20 
1.859
 11 
3.391
 21 
1.834
 0 
LINE
 8 
0
 62 
 7 
 10 
3.391
 20 
1.834
 11 
3.391
 21 
1.817
 0 
LINE
 8 
0
 62 
 7 
 10 
4.06
 20 
1.685
 11 
4.06
 21 
1.641
 0 
LINE
 8 
0
 62 
 7 
 10 
4.06
 20 
1.641
 11 
3.99
 21 
1.641
 0 
LINE
 8 
0
 62 
 7 
 10 
3.99
 20 
1.641
 11 
3.99
 21 
1.685
 0 
LINE
 8 
0
 62 
 7 
 10 
4.06
 20 
1.721
 11 
4.06
 21 
1.765
 0 
LINE
 8 
0
 62 
 7 
 10 
4.06
 20 
1.765
 11 
3.99
 21 
1.765
 0 
LINE
 8 
0
 62 
 7 
 10 
3.99
 20 
1.765
 11 
3.99
 21 
1.721
 0 
LINE
 8 
0
 62 
 7 
 10 
3.992
 20 
1.883
 11 
3.984
 21 
1.891
 0 
LINE
 8 
0
 62 
 7 
 10 
3.984
 20 
1.891
 11 
3.967
 21 
1.891
 0 
LINE
 8 
0
 62 
 7 
 10 
3.967
 20 
1.891
 11 
3.959
 21 
1.883
 0 
LINE
 8 
0
 62 
 7 
 10 
3.959
 20 
1.883
 11 
3.959
 21 
1.849
 0 
LINE
 8 
0
 62 
 7 
 10 
3.959
 20 
1.849
 11 
3.967
 21 
1.841
 0 
LINE
 8 
0
 62 
 7 
 10 
3.967
 20 
1.841
 11 
3.984
 21 
1.841
 0 
LINE
 8 
0
 62 
 7 
 10 
3.984
 20 
1.841
 11 
3.992
 21 
1.849
 0 
LINE
 8 
0
 62 
 7 
 10 
4.017
 20 
1.883
 11 
4.026
 21 
1.891
 0 
LINE
 8 
0
 62 
 7 
 10 
4.026
 20 
1.891
 11 
4.026
 21 
1.841
 0 
LINE
 8 
0
 62 
 7 
 10 
4.017
 20 
1.841
 11 
4.034
 21 
1.841
 0 
LINE
 8 
0
 62 
 7 
 10 
4.067
 20 
1.866
 11 
4.059
 21 
1.874
 0 
LINE
 8 
0
 62 
 7 
 10 
4.059
 20 
1.874
 11 
4.059
 21 
1.883
 0 
LINE
 8 
0
 62 
 7 
 10 
4.059
 20 
1.883
 11 
4.067
 21 
1.891
 0 
LINE
 8 
0
 62 
 7 
 10 
4.067
 20 
1.891
 11 
4.084
 21 
1.891
 0 
LINE
 8 
0
 62 
 7 
 10 
4.084
 20 
1.891
 11 
4.092
 21 
1.883
 0 
LINE
 8 
0
 62 
 7 
 10 
4.092
 20 
1.883
 11 
4.092
 21 
1.874
 0 
LINE
 8 
0
 62 
 7 
 10 
4.092
 20 
1.874
 11 
4.084
 21 
1.866
 0 
LINE
 8 
0
 62 
 7 
 10 
4.084
 20 
1.866
 11 
4.067
 21 
1.866
 0 
LINE
 8 
0
 62 
 7 
 10 
4.067
 20 
1.866
 11 
4.059
 21 
1.858
 0 
LINE
 8 
0
 62 
 7 
 10 
4.059
 20 
1.858
 11 
4.059
 21 
1.849
 0 
LINE
 8 
0
 62 
 7 
 10 
4.059
 20 
1.849
 11 
4.067
 21 
1.841
 0 
LINE
 8 
0
 62 
 7 
 10 
4.067
 20 
1.841
 11 
4.084
 21 
1.841
 0 
LINE
 8 
0
 62 
 7 
 10 
4.084
 20 
1.841
 11 
4.092
 21 
1.849
 0 
LINE
 8 
0
 62 
 7 
 10 
4.092
 20 
1.849
 11 
4.092
 21 
1.858
 0 
LINE
 8 
0
 62 
 7 
 10 
4.092
 20 
1.858
 11 
4.084
 21 
1.866
 0 
LINE
 8 
0
 62 
 7 
 10 
4.06
 20 
2.285
 11 
4.06
 21 
2.241
 0 
LINE
 8 
0
 62 
 7 
 10 
4.06
 20 
2.241
 11 
3.99
 21 
2.241
 0 
LINE
 8 
0
 62 
 7 
 10 
3.99
 20 
2.241
 11 
3.99
 21 
2.285
 0 
LINE
 8 
0
 62 
 7 
 10 
4.06
 20 
2.321
 11 
4.06
 21 
2.365
 0 
LINE
 8 
0
 62 
 7 
 10 
4.06
 20 
2.365
 11 
3.99
 21 
2.365
 0 
LINE
 8 
0
 62 
 7 
 10 
3.99
 20 
2.365
 11 
3.99
 21 
2.321
 0 
LINE
 8 
0
 62 
 7 
 10 
4.016
 20 
2.459
 11 
4.008
 21 
2.467
 0 
LINE
 8 
0
 62 
 7 
 10 
4.008
 20 
2.467
 11 
3.991
 21 
2.467
 0 
LINE
 8 
0
 62 
 7 
 10 
3.991
 20 
2.467
 11 
3.983
 21 
2.459
 0 
LINE
 8 
0
 62 
 7 
 10 
3.983
 20 
2.459
 11 
3.983
 21 
2.425
 0 
LINE
 8 
0
 62 
 7 
 10 
3.983
 20 
2.425
 11 
3.991
 21 
2.417
 0 
LINE
 8 
0
 62 
 7 
 10 
3.991
 20 
2.417
 11 
4.008
 21 
2.417
 0 
LINE
 8 
0
 62 
 7 
 10 
4.008
 20 
2.417
 11 
4.016
 21 
2.425
 0 
LINE
 8 
0
 62 
 7 
 10 
4.041
 20 
2.459
 11 
4.05
 21 
2.467
 0 
LINE
 8 
0
 62 
 7 
 10 
4.05
 20 
2.467
 11 
4.05
 21 
2.417
 0 
LINE
 8 
0
 62 
 7 
 10 
4.041
 20 
2.417
 11 
4.058
 21 
2.417
 0 
LINE
 8 
0
 62 
 7 
 10 
4.116
 20 
2.434
 11 
4.083
 21 
2.434
 0 
LINE
 8 
0
 62 
 7 
 10 
4.083
 20 
2.434
 11 
4.083
 21 
2.442
 0 
LINE
 8 
0
 62 
 7 
 10 
4.083
 20 
2.442
 11 
4.108
 21 
2.467
 0 
LINE
 8 
0
 62 
 7 
 10 
4.108
 20 
2.467
 11 
4.108
 21 
2.417
 0 
LINE
 8 
0
 62 
 7 
 10 
3.36
 20 
2.285
 11 
3.36
 21 
2.241
 0 
LINE
 8 
0
 62 
 7 
 10 
3.36
 20 
2.241
 11 
3.29
 21 
2.241
 0 
LINE
 8 
0
 62 
 7 
 10 
3.29
 20 
2.241
 11 
3.29
 21 
2.285
 0 
LINE
 8 
0
 62 
 7 
 10 
3.36
 20 
2.321
 11 
3.36
 21 
2.365
 0 
LINE
 8 
0
 62 
 7 
 10 
3.36
 20 
2.365
 11 
3.29
 21 
2.365
 0 
LINE
 8 
0
 62 
 7 
 10 
3.29
 20 
2.365
 11 
3.29
 21 
2.321
 0 
LINE
 8 
0
 62 
 7 
 10 
3.408
 20 
2.317
 11 
3.4
 21 
2.325
 0 
LINE
 8 
0
 62 
 7 
 10 
3.4
 20 
2.325
 11 
3.383
 21 
2.325
 0 
LINE
 8 
0
 62 
 7 
 10 
3.383
 20 
2.325
 11 
3.375
 21 
2.317
 0 
LINE
 8 
0
 62 
 7 
 10 
3.375
 20 
2.317
 11 
3.375
 21 
2.283
 0 
LINE
 8 
0
 62 
 7 
 10 
3.375
 20 
2.283
 11 
3.383
 21 
2.275
 0 
LINE
 8 
0
 62 
 7 
 10 
3.383
 20 
2.275
 11 
3.4
 21 
2.275
 0 
LINE
 8 
0
 62 
 7 
 10 
3.4
 20 
2.275
 11 
3.408
 21 
2.283
 0 
LINE
 8 
0
 62 
 7 
 10 
3.433
 20 
2.317
 11 
3.442
 21 
2.325
 0 
LINE
 8 
0
 62 
 7 
 10 
3.442
 20 
2.325
 11 
3.442
 21 
2.275
 0 
LINE
 8 
0
 62 
 7 
 10 
3.433
 20 
2.275
 11 
3.45
 21 
2.275
 0 
LINE
 8 
0
 62 
 7 
 10 
3.475
 20 
2.317
 11 
3.483
 21 
2.325
 0 
LINE
 8 
0
 62 
 7 
 10 
3.483
 20 
2.325
 11 
3.5
 21 
2.325
 0 
LINE
 8 
0
 62 
 7 
 10 
3.5
 20 
2.325
 11 
3.508
 21 
2.317
 0 
LINE
 8 
0
 62 
 7 
 10 
3.508
 20 
2.317
 11 
3.508
 21 
2.308
 0 
LINE
 8 
0
 62 
 7 
 10 
3.508
 20 
2.308
 11 
3.5
 21 
2.3
 0 
LINE
 8 
0
 62 
 7 
 10 
3.5
 20 
2.3
 11 
3.492
 21 
2.3
 0 
LINE
 8 
0
 62 
 7 
 10 
3.5
 20 
2.3
 11 
3.508
 21 
2.292
 0 
LINE
 8 
0
 62 
 7 
 10 
3.508
 20 
2.292
 11 
3.508
 21 
2.283
 0 
LINE
 8 
0
 62 
 7 
 10 
3.508
 20 
2.283
 11 
3.5
 21 
2.275
 0 
LINE
 8 
0
 62 
 7 
 10 
3.5
 20 
2.275
 11 
3.483
 21 
2.275
 0 
LINE
 8 
0
 62 
 7 
 10 
3.483
 20 
2.275
 11 
3.475
 21 
2.283
 0 
LINE
 8 
0
 62 
 7 
 10 
2.685
 20 
2.315
 11 
2.641
 21 
2.315
 0 
LINE
 8 
0
 62 
 7 
 10 
2.641
 20 
2.315
 11 
2.641
 21 
2.385
 0 
LINE
 8 
0
 62 
 7 
 10 
2.641
 20 
2.385
 11 
2.685
 21 
2.385
 0 
LINE
 8 
0
 62 
 7 
 10 
2.721
 20 
2.315
 11 
2.765
 21 
2.315
 0 
LINE
 8 
0
 62 
 7 
 10 
2.765
 20 
2.315
 11 
2.765
 21 
2.385
 0 
LINE
 8 
0
 62 
 7 
 10 
2.765
 20 
2.385
 11 
2.721
 21 
2.385
 0 
LINE
 8 
0
 62 
 7 
 10 
2.833
 20 
2.367
 11 
2.825
 21 
2.375
 0 
LINE
 8 
0
 62 
 7 
 10 
2.825
 20 
2.375
 11 
2.808
 21 
2.375
 0 
LINE
 8 
0
 62 
 7 
 10 
2.808
 20 
2.375
 11 
2.8
 21 
2.367
 0 
LINE
 8 
0
 62 
 7 
 10 
2.8
 20 
2.367
 11 
2.8
 21 
2.333
 0 
LINE
 8 
0
 62 
 7 
 10 
2.8
 20 
2.333
 11 
2.808
 21 
2.325
 0 
LINE
 8 
0
 62 
 7 
 10 
2.808
 20 
2.325
 11 
2.825
 21 
2.325
 0 
LINE
 8 
0
 62 
 7 
 10 
2.825
 20 
2.325
 11 
2.833
 21 
2.333
 0 
LINE
 8 
0
 62 
 7 
 10 
2.858
 20 
2.367
 11 
2.867
 21 
2.375
 0 
LINE
 8 
0
 62 
 7 
 10 
2.867
 20 
2.375
 11 
2.867
 21 
2.325
 0 
LINE
 8 
0
 62 
 7 
 10 
2.858
 20 
2.325
 11 
2.875
 21 
2.325
 0 
LINE
 8 
0
 62 
 7 
 10 
2.9
 20 
2.367
 11 
2.908
 21 
2.375
 0 
LINE
 8 
0
 62 
 7 
 10 
2.908
 20 
2.375
 11 
2.925
 21 
2.375
 0 
LINE
 8 
0
 62 
 7 
 10 
2.925
 20 
2.375
 11 
2.933
 21 
2.367
 0 
LINE
 8 
0
 62 
 7 
 10 
2.933
 20 
2.367
 11 
2.933
 21 
2.358
 0 
LINE
 8 
0
 62 
 7 
 10 
2.933
 20 
2.358
 11 
2.925
 21 
2.35
 0 
LINE
 8 
0
 62 
 7 
 10 
2.925
 20 
2.35
 11 
2.908
 21 
2.35
 0 
LINE
 8 
0
 62 
 7 
 10 
2.908
 20 
2.35
 11 
2.9
 21 
2.342
 0 
LINE
 8 
0
 62 
 7 
 10 
2.9
 20 
2.342
 11 
2.9
 21 
2.325
 0 
LINE
 8 
0
 62 
 7 
 10 
2.9
 20 
2.325
 11 
2.933
 21 
2.325
 0 
LINE
 8 
0
 62 
 7 
 10 
1.91
 20 
2.215
 11 
1.866
 21 
2.215
 0 
LINE
 8 
0
 62 
 7 
 10 
1.866
 20 
2.215
 11 
1.866
 21 
2.285
 0 
LINE
 8 
0
 62 
 7 
 10 
1.866
 20 
2.285
 11 
1.91
 21 
2.285
 0 
LINE
 8 
0
 62 
 7 
 10 
1.946
 20 
2.215
 11 
1.99
 21 
2.215
 0 
LINE
 8 
0
 62 
 7 
 10 
1.99
 20 
2.215
 11 
1.99
 21 
2.285
 0 
LINE
 8 
0
 62 
 7 
 10 
1.99
 20 
2.285
 11 
1.946
 21 
2.285
 0 
LINE
 8 
0
 62 
 7 
 10 
2.059
 20 
2.268
 11 
2.051
 21 
2.276
 0 
LINE
 8 
0
 62 
 7 
 10 
2.051
 20 
2.276
 11 
2.034
 21 
2.276
 0 
LINE
 8 
0
 62 
 7 
 10 
2.034
 20 
2.276
 11 
2.026
 21 
2.268
 0 
LINE
 8 
0
 62 
 7 
 10 
2.026
 20 
2.268
 11 
2.026
 21 
2.234
 0 
LINE
 8 
0
 62 
 7 
 10 
2.026
 20 
2.234
 11 
2.034
 21 
2.226
 0 
LINE
 8 
0
 62 
 7 
 10 
2.034
 20 
2.226
 11 
2.051
 21 
2.226
 0 
LINE
 8 
0
 62 
 7 
 10 
2.051
 20 
2.226
 11 
2.059
 21 
2.234
 0 
LINE
 8 
0
 62 
 7 
 10 
2.084
 20 
2.268
 11 
2.093
 21 
2.276
 0 
LINE
 8 
0
 62 
 7 
 10 
2.093
 20 
2.276
 11 
2.093
 21 
2.226
 0 
LINE
 8 
0
 62 
 7 
 10 
2.084
 20 
2.226
 11 
2.101
 21 
2.226
 0 
LINE
 8 
0
 62 
 7 
 10 
2.134
 20 
2.268
 11 
2.143
 21 
2.276
 0 
LINE
 8 
0
 62 
 7 
 10 
2.143
 20 
2.276
 11 
2.143
 21 
2.226
 0 
LINE
 8 
0
 62 
 7 
 10 
2.134
 20 
2.226
 11 
2.151
 21 
2.226
 0 
LINE
 8 
0
 62 
 7 
 10 
1.91
 20 
0.59
 11 
1.94
 21 
0.59
 0 
LINE
 8 
0
 62 
 7 
 10 
1.94
 20 
0.59
 11 
1.94
 21 
0.56
 0 
LINE
 8 
0
 62 
 7 
 10 
1.94
 20 
0.56
 11 
1.91
 21 
0.56
 0 
LINE
 8 
0
 62 
 7 
 10 
1.91
 20 
0.56
 11 
1.91
 21 
0.59
 0 
LINE
 8 
0
 62 
 7 
 10 
1.91
 20 
0.645
 11 
1.94
 21 
0.645
 0 
LINE
 8 
0
 62 
 7 
 10 
1.94
 20 
0.645
 11 
1.94
 21 
0.615
 0 
LINE
 8 
0
 62 
 7 
 10 
1.94
 20 
0.615
 11 
1.91
 21 
0.615
 0 
LINE
 8 
0
 62 
 7 
 10 
1.91
 20 
0.615
 11 
1.91
 21 
0.645
 0 
LINE
 8 
0
 62 
 7 
 10 
2.585
 20 
0.565
 11 
2.615
 21 
0.565
 0 
LINE
 8 
0
 62 
 7 
 10 
2.615
 20 
0.565
 11 
2.615
 21 
0.535
 0 
LINE
 8 
0
 62 
 7 
 10 
2.615
 20 
0.535
 11 
2.585
 21 
0.535
 0 
LINE
 8 
0
 62 
 7 
 10 
2.585
 20 
0.535
 11 
2.585
 21 
0.565
 0 
LINE
 8 
0
 62 
 7 
 10 
2.64
 20 
0.565
 11 
2.67
 21 
0.565
 0 
LINE
 8 
0
 62 
 7 
 10 
2.67
 20 
0.565
 11 
2.67
 21 
0.535
 0 
LINE
 8 
0
 62 
 7 
 10 
2.67
 20 
0.535
 11 
2.64
 21 
0.535
 0 
LINE
 8 
0
 62 
 7 
 10 
2.64
 20 
0.535
 11 
2.64
 21 
0.565
 0 
LINE
 8 
0
 62 
 7 
 10 
3.31
 20 
0.59
 11 
3.34
 21 
0.59
 0 
LINE
 8 
0
 62 
 7 
 10 
3.34
 20 
0.59
 11 
3.34
 21 
0.56
 0 
LINE
 8 
0
 62 
 7 
 10 
3.34
 20 
0.56
 11 
3.31
 21 
0.56
 0 
LINE
 8 
0
 62 
 7 
 10 
3.31
 20 
0.56
 11 
3.31
 21 
0.59
 0 
LINE
 8 
0
 62 
 7 
 10 
3.31
 20 
0.645
 11 
3.34
 21 
0.645
 0 
LINE
 8 
0
 62 
 7 
 10 
3.34
 20 
0.645
 11 
3.34
 21 
0.615
 0 
LINE
 8 
0
 62 
 7 
 10 
3.34
 20 
0.615
 11 
3.31
 21 
0.615
 0 
LINE
 8 
0
 62 
 7 
 10 
3.31
 20 
0.615
 11 
3.31
 21 
0.645
 0 
LINE
 8 
0
 62 
 7 
 10 
4.01
 20 
0.59
 11 
4.04
 21 
0.59
 0 
LINE
 8 
0
 62 
 7 
 10 
4.04
 20 
0.59
 11 
4.04
 21 
0.56
 0 
LINE
 8 
0
 62 
 7 
 10 
4.04
 20 
0.56
 11 
4.01
 21 
0.56
 0 
LINE
 8 
0
 62 
 7 
 10 
4.01
 20 
0.56
 11 
4.01
 21 
0.59
 0 
LINE
 8 
0
 62 
 7 
 10 
4.01
 20 
0.645
 11 
4.04
 21 
0.645
 0 
LINE
 8 
0
 62 
 7 
 10 
4.04
 20 
0.645
 11 
4.04
 21 
0.615
 0 
LINE
 8 
0
 62 
 7 
 10 
4.04
 20 
0.615
 11 
4.01
 21 
0.615
 0 
LINE
 8 
0
 62 
 7 
 10 
4.01
 20 
0.615
 11 
4.01
 21 
0.645
 0 
LINE
 8 
0
 62 
 7 
 10 
4.01
 20 
1.19
 11 
4.04
 21 
1.19
 0 
LINE
 8 
0
 62 
 7 
 10 
4.04
 20 
1.19
 11 
4.04
 21 
1.16
 0 
LINE
 8 
0
 62 
 7 
 10 
4.04
 20 
1.16
 11 
4.01
 21 
1.16
 0 
LINE
 8 
0
 62 
 7 
 10 
4.01
 20 
1.16
 11 
4.01
 21 
1.19
 0 
LINE
 8 
0
 62 
 7 
 10 
4.01
 20 
1.245
 11 
4.04
 21 
1.245
 0 
LINE
 8 
0
 62 
 7 
 10 
4.04
 20 
1.245
 11 
4.04
 21 
1.215
 0 
LINE
 8 
0
 62 
 7 
 10 
4.04
 20 
1.215
 11 
4.01
 21 
1.215
 0 
LINE
 8 
0
 62 
 7 
 10 
4.01
 20 
1.215
 11 
4.01
 21 
1.245
 0 
LINE
 8 
0
 62 
 7 
 10 
3.31
 20 
1.19
 11 
3.34
 21 
1.19
 0 
LINE
 8 
0
 62 
 7 
 10 
3.34
 20 
1.19
 11 
3.34
 21 
1.16
 0 
LINE
 8 
0
 62 
 7 
 10 
3.34
 20 
1.16
 11 
3.31
 21 
1.16
 0 
LINE
 8 
0
 62 
 7 
 10 
3.31
 20 
1.16
 11 
3.31
 21 
1.19
 0 
LINE
 8 
0
 62 
 7 
 10 
3.31
 20 
1.245
 11 
3.34
 21 
1.245
 0 
LINE
 8 
0
 62 
 7 
 10 
3.34
 20 
1.245
 11 
3.34
 21 
1.215
 0 
LINE
 8 
0
 62 
 7 
 10 
3.34
 20 
1.215
 11 
3.31
 21 
1.215
 0 
LINE
 8 
0
 62 
 7 
 10 
3.31
 20 
1.215
 11 
3.31
 21 
1.245
 0 
LINE
 8 
0
 62 
 7 
 10 
2.66
 20 
1.265
 11 
2.69
 21 
1.265
 0 
LINE
 8 
0
 62 
 7 
 10 
2.69
 20 
1.265
 11 
2.69
 21 
1.235
 0 
LINE
 8 
0
 62 
 7 
 10 
2.69
 20 
1.235
 11 
2.66
 21 
1.235
 0 
LINE
 8 
0
 62 
 7 
 10 
2.66
 20 
1.235
 11 
2.66
 21 
1.265
 0 
LINE
 8 
0
 62 
 7 
 10 
2.715
 20 
1.265
 11 
2.745
 21 
1.265
 0 
LINE
 8 
0
 62 
 7 
 10 
2.745
 20 
1.265
 11 
2.745
 21 
1.235
 0 
LINE
 8 
0
 62 
 7 
 10 
2.745
 20 
1.235
 11 
2.715
 21 
1.235
 0 
LINE
 8 
0
 62 
 7 
 10 
2.715
 20 
1.235
 11 
2.715
 21 
1.265
 0 
LINE
 8 
0
 62 
 7 
 10 
1.885
 20 
1.165
 11 
1.915
 21 
1.165
 0 
LINE
 8 
0
 62 
 7 
 10 
1.915
 20 
1.165
 11 
1.915
 21 
1.135
 0 
LINE
 8 
0
 62 
 7 
 10 
1.915
 20 
1.135
 11 
1.885
 21 
1.135
 0 
LINE
 8 
0
 62 
 7 
 10 
1.885
 20 
1.135
 11 
1.885
 21 
1.165
 0 
LINE
 8 
0
 62 
 7 
 10 
1.94
 20 
1.165
 11 
1.97
 21 
1.165
 0 
LINE
 8 
0
 62 
 7 
 10 
1.97
 20 
1.165
 11 
1.97
 21 
1.135
 0 
LINE
 8 
0
 62 
 7 
 10 
1.97
 20 
1.135
 11 
1.94
 21 
1.135
 0 
LINE
 8 
0
 62 
 7 
 10 
1.94
 20 
1.135
 11 
1.94
 21 
1.165
 0 
LINE
 8 
0
 62 
 7 
 10 
1.96
 20 
0.585
 11 
1.96
 21 
0.541
 0 
LINE
 8 
0
 62 
 7 
 10 
1.96
 20 
0.541
 11 
1.89
 21 
0.541
 0 
LINE
 8 
0
 62 
 7 
 10 
1.89
 20 
0.541
 11 
1.89
 21 
0.585
 0 
LINE
 8 
0
 62 
 7 
 10 
1.96
 20 
0.621
 11 
1.96
 21 
0.665
 0 
LINE
 8 
0
 62 
 7 
 10 
1.96
 20 
0.665
 11 
1.89
 21 
0.665
 0 
LINE
 8 
0
 62 
 7 
 10 
1.89
 20 
0.665
 11 
1.89
 21 
0.621
 0 
LINE
 8 
0
 62 
 7 
 10 
1.916
 20 
0.759
 11 
1.908
 21 
0.767
 0 
LINE
 8 
0
 62 
 7 
 10 
1.908
 20 
0.767
 11 
1.891
 21 
0.767
 0 
LINE
 8 
0
 62 
 7 
 10 
1.891
 20 
0.767
 11 
1.883
 21 
0.759
 0 
LINE
 8 
0
 62 
 7 
 10 
1.883
 20 
0.759
 11 
1.883
 21 
0.725
 0 
LINE
 8 
0
 62 
 7 
 10 
1.883
 20 
0.725
 11 
1.891
 21 
0.717
 0 
LINE
 8 
0
 62 
 7 
 10 
1.891
 20 
0.717
 11 
1.908
 21 
0.717
 0 
LINE
 8 
0
 62 
 7 
 10 
1.908
 20 
0.717
 11 
1.916
 21 
0.725
 0 
LINE
 8 
0
 62 
 7 
 10 
1.933
 20 
0.759
 11 
1.941
 21 
0.767
 0 
LINE
 8 
0
 62 
 7 
 10 
1.941
 20 
0.767
 11 
1.958
 21 
0.767
 0 
LINE
 8 
0
 62 
 7 
 10 
1.958
 20 
0.767
 11 
1.966
 21 
0.759
 0 
LINE
 8 
0
 62 
 7 
 10 
1.966
 20 
0.759
 11 
1.966
 21 
0.75
 0 
LINE
 8 
0
 62 
 7 
 10 
1.966
 20 
0.75
 11 
1.958
 21 
0.742
 0 
LINE
 8 
0
 62 
 7 
 10 
1.958
 20 
0.742
 11 
1.941
 21 
0.742
 0 
LINE
 8 
0
 62 
 7 
 10 
1.941
 20 
0.742
 11 
1.933
 21 
0.734
 0 
LINE
 8 
0
 62 
 7 
 10 
1.933
 20 
0.734
 11 
1.933
 21 
0.717
 0 
LINE
 8 
0
 62 
 7 
 10 
1.933
 20 
0.717
 11 
1.966
 21 
0.717
 0 
LINE
 8 
0
 62 
 7 
 10 
1.983
 20 
0.759
 11 
1.991
 21 
0.767
 0 
LINE
 8 
0
 62 
 7 
 10 
1.991
 20 
0.767
 11 
2.008
 21 
0.767
 0 
LINE
 8 
0
 62 
 7 
 10 
2.008
 20 
0.767
 11 
2.016
 21 
0.759
 0 
LINE
 8 
0
 62 
 7 
 10 
2.016
 20 
0.759
 11 
2.016
 21 
0.75
 0 
LINE
 8 
0
 62 
 7 
 10 
2.016
 20 
0.75
 11 
2.008
 21 
0.742
 0 
LINE
 8 
0
 62 
 7 
 10 
2.008
 20 
0.742
 11 
2.0
 21 
0.742
 0 
LINE
 8 
0
 62 
 7 
 10 
2.008
 20 
0.742
 11 
2.016
 21 
0.734
 0 
LINE
 8 
0
 62 
 7 
 10 
2.016
 20 
0.734
 11 
2.016
 21 
0.725
 0 
LINE
 8 
0
 62 
 7 
 10 
2.016
 20 
0.725
 11 
2.008
 21 
0.717
 0 
LINE
 8 
0
 62 
 7 
 10 
2.008
 20 
0.717
 11 
1.991
 21 
0.717
 0 
LINE
 8 
0
 62 
 7 
 10 
1.991
 20 
0.717
 11 
1.983
 21 
0.725
 0 
LINE
 8 
0
 62 
 7 
 10 
2.61
 20 
0.515
 11 
2.566
 21 
0.515
 0 
LINE
 8 
0
 62 
 7 
 10 
2.566
 20 
0.515
 11 
2.566
 21 
0.585
 0 
LINE
 8 
0
 62 
 7 
 10 
2.566
 20 
0.585
 11 
2.61
 21 
0.585
 0 
LINE
 8 
0
 62 
 7 
 10 
2.646
 20 
0.515
 11 
2.69
 21 
0.515
 0 
LINE
 8 
0
 62 
 7 
 10 
2.69
 20 
0.515
 11 
2.69
 21 
0.585
 0 
LINE
 8 
0
 62 
 7 
 10 
2.69
 20 
0.585
 11 
2.646
 21 
0.585
 0 
LINE
 8 
0
 62 
 7 
 10 
2.758
 20 
0.567
 11 
2.75
 21 
0.575
 0 
LINE
 8 
0
 62 
 7 
 10 
2.75
 20 
0.575
 11 
2.733
 21 
0.575
 0 
LINE
 8 
0
 62 
 7 
 10 
2.733
 20 
0.575
 11 
2.725
 21 
0.567
 0 
LINE
 8 
0
 62 
 7 
 10 
2.725
 20 
0.567
 11 
2.725
 21 
0.533
 0 
LINE
 8 
0
 62 
 7 
 10 
2.725
 20 
0.533
 11 
2.733
 21 
0.525
 0 
LINE
 8 
0
 62 
 7 
 10 
2.733
 20 
0.525
 11 
2.75
 21 
0.525
 0 
LINE
 8 
0
 62 
 7 
 10 
2.75
 20 
0.525
 11 
2.758
 21 
0.533
 0 
LINE
 8 
0
 62 
 7 
 10 
2.775
 20 
0.567
 11 
2.783
 21 
0.575
 0 
LINE
 8 
0
 62 
 7 
 10 
2.783
 20 
0.575
 11 
2.8
 21 
0.575
 0 
LINE
 8 
0
 62 
 7 
 10 
2.8
 20 
0.575
 11 
2.808
 21 
0.567
 0 
LINE
 8 
0
 62 
 7 
 10 
2.808
 20 
0.567
 11 
2.808
 21 
0.558
 0 
LINE
 8 
0
 62 
 7 
 10 
2.808
 20 
0.558
 11 
2.8
 21 
0.55
 0 
LINE
 8 
0
 62 
 7 
 10 
2.8
 20 
0.55
 11 
2.783
 21 
0.55
 0 
LINE
 8 
0
 62 
 7 
 10 
2.783
 20 
0.55
 11 
2.775
 21 
0.542
 0 
LINE
 8 
0
 62 
 7 
 10 
2.775
 20 
0.542
 11 
2.775
 21 
0.525
 0 
LINE
 8 
0
 62 
 7 
 10 
2.775
 20 
0.525
 11 
2.808
 21 
0.525
 0 
LINE
 8 
0
 62 
 7 
 10 
2.858
 20 
0.542
 11 
2.825
 21 
0.542
 0 
LINE
 8 
0
 62 
 7 
 10 
2.825
 20 
0.542
 11 
2.825
 21 
0.55
 0 
LINE
 8 
0
 62 
 7 
 10 
2.825
 20 
0.55
 11 
2.85
 21 
0.575
 0 
LINE
 8 
0
 62 
 7 
 10 
2.85
 20 
0.575
 11 
2.85
 21 
0.525
 0 
LINE
 8 
0
 62 
 7 
 10 
3.36
 20 
0.585
 11 
3.36
 21 
0.541
 0 
LINE
 8 
0
 62 
 7 
 10 
3.36
 20 
0.541
 11 
3.29
 21 
0.541
 0 
LINE
 8 
0
 62 
 7 
 10 
3.29
 20 
0.541
 11 
3.29
 21 
0.585
 0 
LINE
 8 
0
 62 
 7 
 10 
3.36
 20 
0.621
 11 
3.36
 21 
0.665
 0 
LINE
 8 
0
 62 
 7 
 10 
3.36
 20 
0.665
 11 
3.29
 21 
0.665
 0 
LINE
 8 
0
 62 
 7 
 10 
3.29
 20 
0.665
 11 
3.29
 21 
0.621
 0 
LINE
 8 
0
 62 
 7 
 10 
3.316
 20 
0.759
 11 
3.308
 21 
0.767
 0 
LINE
 8 
0
 62 
 7 
 10 
3.308
 20 
0.767
 11 
3.291
 21 
0.767
 0 
LINE
 8 
0
 62 
 7 
 10 
3.291
 20 
0.767
 11 
3.283
 21 
0.759
 0 
LINE
 8 
0
 62 
 7 
 10 
3.283
 20 
0.759
 11 
3.283
 21 
0.725
 0 
LINE
 8 
0
 62 
 7 
 10 
3.283
 20 
0.725
 11 
3.291
 21 
0.717
 0 
LINE
 8 
0
 62 
 7 
 10 
3.291
 20 
0.717
 11 
3.308
 21 
0.717
 0 
LINE
 8 
0
 62 
 7 
 10 
3.308
 20 
0.717
 11 
3.316
 21 
0.725
 0 
LINE
 8 
0
 62 
 7 
 10 
3.333
 20 
0.759
 11 
3.341
 21 
0.767
 0 
LINE
 8 
0
 62 
 7 
 10 
3.341
 20 
0.767
 11 
3.358
 21 
0.767
 0 
LINE
 8 
0
 62 
 7 
 10 
3.358
 20 
0.767
 11 
3.366
 21 
0.759
 0 
LINE
 8 
0
 62 
 7 
 10 
3.366
 20 
0.759
 11 
3.366
 21 
0.75
 0 
LINE
 8 
0
 62 
 7 
 10 
3.366
 20 
0.75
 11 
3.358
 21 
0.742
 0 
LINE
 8 
0
 62 
 7 
 10 
3.358
 20 
0.742
 11 
3.341
 21 
0.742
 0 
LINE
 8 
0
 62 
 7 
 10 
3.341
 20 
0.742
 11 
3.333
 21 
0.734
 0 
LINE
 8 
0
 62 
 7 
 10 
3.333
 20 
0.734
 11 
3.333
 21 
0.717
 0 
LINE
 8 
0
 62 
 7 
 10 
3.333
 20 
0.717
 11 
3.366
 21 
0.717
 0 
LINE
 8 
0
 62 
 7 
 10 
3.416
 20 
0.767
 11 
3.383
 21 
0.767
 0 
LINE
 8 
0
 62 
 7 
 10 
3.383
 20 
0.767
 11 
3.383
 21 
0.75
 0 
LINE
 8 
0
 62 
 7 
 10 
3.383
 20 
0.75
 11 
3.408
 21 
0.75
 0 
LINE
 8 
0
 62 
 7 
 10 
3.408
 20 
0.75
 11 
3.416
 21 
0.742
 0 
LINE
 8 
0
 62 
 7 
 10 
3.416
 20 
0.742
 11 
3.416
 21 
0.725
 0 
LINE
 8 
0
 62 
 7 
 10 
3.416
 20 
0.725
 11 
3.408
 21 
0.717
 0 
LINE
 8 
0
 62 
 7 
 10 
3.408
 20 
0.717
 11 
3.391
 21 
0.717
 0 
LINE
 8 
0
 62 
 7 
 10 
3.391
 20 
0.717
 11 
3.383
 21 
0.725
 0 
LINE
 8 
0
 62 
 7 
 10 
4.06
 20 
0.585
 11 
4.06
 21 
0.541
 0 
LINE
 8 
0
 62 
 7 
 10 
4.06
 20 
0.541
 11 
3.99
 21 
0.541
 0 
LINE
 8 
0
 62 
 7 
 10 
3.99
 20 
0.541
 11 
3.99
 21 
0.585
 0 
LINE
 8 
0
 62 
 7 
 10 
4.06
 20 
0.621
 11 
4.06
 21 
0.665
 0 
LINE
 8 
0
 62 
 7 
 10 
4.06
 20 
0.665
 11 
3.99
 21 
0.665
 0 
LINE
 8 
0
 62 
 7 
 10 
3.99
 20 
0.665
 11 
3.99
 21 
0.621
 0 
LINE
 8 
0
 62 
 7 
 10 
3.992
 20 
0.783
 11 
3.984
 21 
0.791
 0 
LINE
 8 
0
 62 
 7 
 10 
3.984
 20 
0.791
 11 
3.967
 21 
0.791
 0 
LINE
 8 
0
 62 
 7 
 10 
3.967
 20 
0.791
 11 
3.959
 21 
0.783
 0 
LINE
 8 
0
 62 
 7 
 10 
3.959
 20 
0.783
 11 
3.959
 21 
0.749
 0 
LINE
 8 
0
 62 
 7 
 10 
3.959
 20 
0.749
 11 
3.967
 21 
0.741
 0 
LINE
 8 
0
 62 
 7 
 10 
3.967
 20 
0.741
 11 
3.984
 21 
0.741
 0 
LINE
 8 
0
 62 
 7 
 10 
3.984
 20 
0.741
 11 
3.992
 21 
0.749
 0 
LINE
 8 
0
 62 
 7 
 10 
4.009
 20 
0.783
 11 
4.017
 21 
0.791
 0 
LINE
 8 
0
 62 
 7 
 10 
4.017
 20 
0.791
 11 
4.034
 21 
0.791
 0 
LINE
 8 
0
 62 
 7 
 10 
4.034
 20 
0.791
 11 
4.042
 21 
0.783
 0 
LINE
 8 
0
 62 
 7 
 10 
4.042
 20 
0.783
 11 
4.042
 21 
0.774
 0 
LINE
 8 
0
 62 
 7 
 10 
4.042
 20 
0.774
 11 
4.034
 21 
0.766
 0 
LINE
 8 
0
 62 
 7 
 10 
4.034
 20 
0.766
 11 
4.017
 21 
0.766
 0 
LINE
 8 
0
 62 
 7 
 10 
4.017
 20 
0.766
 11 
4.009
 21 
0.758
 0 
LINE
 8 
0
 62 
 7 
 10 
4.009
 20 
0.758
 11 
4.009
 21 
0.741
 0 
LINE
 8 
0
 62 
 7 
 10 
4.009
 20 
0.741
 11 
4.042
 21 
0.741
 0 
LINE
 8 
0
 62 
 7 
 10 
4.084
 20 
0.791
 11 
4.076
 21 
0.791
 0 
LINE
 8 
0
 62 
 7 
 10 
4.076
 20 
0.791
 11 
4.059
 21 
0.774
 0 
LINE
 8 
0
 62 
 7 
 10 
4.059
 20 
0.774
 11 
4.059
 21 
0.749
 0 
LINE
 8 
0
 62 
 7 
 10 
4.059
 20 
0.749
 11 
4.067
 21 
0.741
 0 
LINE
 8 
0
 62 
 7 
 10 
4.067
 20 
0.741
 11 
4.084
 21 
0.741
 0 
LINE
 8 
0
 62 
 7 
 10 
4.084
 20 
0.741
 11 
4.092
 21 
0.749
 0 
LINE
 8 
0
 62 
 7 
 10 
4.092
 20 
0.749
 11 
4.092
 21 
0.758
 0 
LINE
 8 
0
 62 
 7 
 10 
4.092
 20 
0.758
 11 
4.084
 21 
0.766
 0 
LINE
 8 
0
 62 
 7 
 10 
4.084
 20 
0.766
 11 
4.067
 21 
0.766
 0 
LINE
 8 
0
 62 
 7 
 10 
4.067
 20 
0.766
 11 
4.059
 21 
0.758
 0 
LINE
 8 
0
 62 
 7 
 10 
4.06
 20 
1.185
 11 
4.06
 21 
1.141
 0 
LINE
 8 
0
 62 
 7 
 10 
4.06
 20 
1.141
 11 
3.99
 21 
1.141
 0 
LINE
 8 
0
 62 
 7 
 10 
3.99
 20 
1.141
 11 
3.99
 21 
1.185
 0 
LINE
 8 
0
 62 
 7 
 10 
4.06
 20 
1.221
 11 
4.06
 21 
1.265
 0 
LINE
 8 
0
 62 
 7 
 10 
4.06
 20 
1.265
 11 
3.99
 21 
1.265
 0 
LINE
 8 
0
 62 
 7 
 10 
3.99
 20 
1.265
 11 
3.99
 21 
1.221
 0 
LINE
 8 
0
 62 
 7 
 10 
4.016
 20 
1.359
 11 
4.008
 21 
1.367
 0 
LINE
 8 
0
 62 
 7 
 10 
4.008
 20 
1.367
 11 
3.991
 21 
1.367
 0 
LINE
 8 
0
 62 
 7 
 10 
3.991
 20 
1.367
 11 
3.983
 21 
1.359
 0 
LINE
 8 
0
 62 
 7 
 10 
3.983
 20 
1.359
 11 
3.983
 21 
1.325
 0 
LINE
 8 
0
 62 
 7 
 10 
3.983
 20 
1.325
 11 
3.991
 21 
1.317
 0 
LINE
 8 
0
 62 
 7 
 10 
3.991
 20 
1.317
 11 
4.008
 21 
1.317
 0 
LINE
 8 
0
 62 
 7 
 10 
4.008
 20 
1.317
 11 
4.016
 21 
1.325
 0 
LINE
 8 
0
 62 
 7 
 10 
4.033
 20 
1.359
 11 
4.041
 21 
1.367
 0 
LINE
 8 
0
 62 
 7 
 10 
4.041
 20 
1.367
 11 
4.058
 21 
1.367
 0 
LINE
 8 
0
 62 
 7 
 10 
4.058
 20 
1.367
 11 
4.066
 21 
1.359
 0 
LINE
 8 
0
 62 
 7 
 10 
4.066
 20 
1.359
 11 
4.066
 21 
1.35
 0 
LINE
 8 
0
 62 
 7 
 10 
4.066
 20 
1.35
 11 
4.058
 21 
1.342
 0 
LINE
 8 
0
 62 
 7 
 10 
4.058
 20 
1.342
 11 
4.041
 21 
1.342
 0 
LINE
 8 
0
 62 
 7 
 10 
4.041
 20 
1.342
 11 
4.033
 21 
1.334
 0 
LINE
 8 
0
 62 
 7 
 10 
4.033
 20 
1.334
 11 
4.033
 21 
1.317
 0 
LINE
 8 
0
 62 
 7 
 10 
4.033
 20 
1.317
 11 
4.066
 21 
1.317
 0 
LINE
 8 
0
 62 
 7 
 10 
4.083
 20 
1.359
 11 
4.091
 21 
1.367
 0 
LINE
 8 
0
 62 
 7 
 10 
4.091
 20 
1.367
 11 
4.108
 21 
1.367
 0 
LINE
 8 
0
 62 
 7 
 10 
4.108
 20 
1.367
 11 
4.116
 21 
1.359
 0 
LINE
 8 
0
 62 
 7 
 10 
4.116
 20 
1.359
 11 
4.116
 21 
1.35
 0 
LINE
 8 
0
 62 
 7 
 10 
4.116
 20 
1.35
 11 
4.108
 21 
1.342
 0 
LINE
 8 
0
 62 
 7 
 10 
4.108
 20 
1.342
 11 
4.091
 21 
1.342
 0 
LINE
 8 
0
 62 
 7 
 10 
4.091
 20 
1.342
 11 
4.083
 21 
1.334
 0 
LINE
 8 
0
 62 
 7 
 10 
4.083
 20 
1.334
 11 
4.083
 21 
1.317
 0 
LINE
 8 
0
 62 
 7 
 10 
4.083
 20 
1.317
 11 
4.116
 21 
1.317
 0 
LINE
 8 
0
 62 
 7 
 10 
3.36
 20 
1.185
 11 
3.36
 21 
1.141
 0 
LINE
 8 
0
 62 
 7 
 10 
3.36
 20 
1.141
 11 
3.29
 21 
1.141
 0 
LINE
 8 
0
 62 
 7 
 10 
3.29
 20 
1.141
 11 
3.29
 21 
1.185
 0 
LINE
 8 
0
 62 
 7 
 10 
3.36
 20 
1.221
 11 
3.36
 21 
1.265
 0 
LINE
 8 
0
 62 
 7 
 10 
3.36
 20 
1.265
 11 
3.29
 21 
1.265
 0 
LINE
 8 
0
 62 
 7 
 10 
3.29
 20 
1.265
 11 
3.29
 21 
1.221
 0 
LINE
 8 
0
 62 
 7 
 10 
3.316
 20 
1.359
 11 
3.308
 21 
1.367
 0 
LINE
 8 
0
 62 
 7 
 10 
3.308
 20 
1.367
 11 
3.291
 21 
1.367
 0 
LINE
 8 
0
 62 
 7 
 10 
3.291
 20 
1.367
 11 
3.283
 21 
1.359
 0 
LINE
 8 
0
 62 
 7 
 10 
3.283
 20 
1.359
 11 
3.283
 21 
1.325
 0 
LINE
 8 
0
 62 
 7 
 10 
3.283
 20 
1.325
 11 
3.291
 21 
1.317
 0 
LINE
 8 
0
 62 
 7 
 10 
3.291
 20 
1.317
 11 
3.308
 21 
1.317
 0 
LINE
 8 
0
 62 
 7 
 10 
3.308
 20 
1.317
 11 
3.316
 21 
1.325
 0 
LINE
 8 
0
 62 
 7 
 10 
3.333
 20 
1.359
 11 
3.341
 21 
1.367
 0 
LINE
 8 
0
 62 
 7 
 10 
3.341
 20 
1.367
 11 
3.358
 21 
1.367
 0 
LINE
 8 
0
 62 
 7 
 10 
3.358
 20 
1.367
 11 
3.366
 21 
1.359
 0 
LINE
 8 
0
 62 
 7 
 10 
3.366
 20 
1.359
 11 
3.366
 21 
1.35
 0 
LINE
 8 
0
 62 
 7 
 10 
3.366
 20 
1.35
 11 
3.358
 21 
1.342
 0 
LINE
 8 
0
 62 
 7 
 10 
3.358
 20 
1.342
 11 
3.341
 21 
1.342
 0 
LINE
 8 
0
 62 
 7 
 10 
3.341
 20 
1.342
 11 
3.333
 21 
1.334
 0 
LINE
 8 
0
 62 
 7 
 10 
3.333
 20 
1.334
 11 
3.333
 21 
1.317
 0 
LINE
 8 
0
 62 
 7 
 10 
3.333
 20 
1.317
 11 
3.366
 21 
1.317
 0 
LINE
 8 
0
 62 
 7 
 10 
3.391
 20 
1.359
 11 
3.4
 21 
1.367
 0 
LINE
 8 
0
 62 
 7 
 10 
3.4
 20 
1.367
 11 
3.4
 21 
1.317
 0 
LINE
 8 
0
 62 
 7 
 10 
3.391
 20 
1.317
 11 
3.408
 21 
1.317
 0 
LINE
 8 
0
 62 
 7 
 10 
2.685
 20 
1.215
 11 
2.641
 21 
1.215
 0 
LINE
 8 
0
 62 
 7 
 10 
2.641
 20 
1.215
 11 
2.641
 21 
1.285
 0 
LINE
 8 
0
 62 
 7 
 10 
2.641
 20 
1.285
 11 
2.685
 21 
1.285
 0 
LINE
 8 
0
 62 
 7 
 10 
2.721
 20 
1.215
 11 
2.765
 21 
1.215
 0 
LINE
 8 
0
 62 
 7 
 10 
2.765
 20 
1.215
 11 
2.765
 21 
1.285
 0 
LINE
 8 
0
 62 
 7 
 10 
2.765
 20 
1.285
 11 
2.721
 21 
1.285
 0 
LINE
 8 
0
 62 
 7 
 10 
2.833
 20 
1.267
 11 
2.825
 21 
1.275
 0 
LINE
 8 
0
 62 
 7 
 10 
2.825
 20 
1.275
 11 
2.808
 21 
1.275
 0 
LINE
 8 
0
 62 
 7 
 10 
2.808
 20 
1.275
 11 
2.8
 21 
1.267
 0 
LINE
 8 
0
 62 
 7 
 10 
2.8
 20 
1.267
 11 
2.8
 21 
1.233
 0 
LINE
 8 
0
 62 
 7 
 10 
2.8
 20 
1.233
 11 
2.808
 21 
1.225
 0 
LINE
 8 
0
 62 
 7 
 10 
2.808
 20 
1.225
 11 
2.825
 21 
1.225
 0 
LINE
 8 
0
 62 
 7 
 10 
2.825
 20 
1.225
 11 
2.833
 21 
1.233
 0 
LINE
 8 
0
 62 
 7 
 10 
2.85
 20 
1.267
 11 
2.858
 21 
1.275
 0 
LINE
 8 
0
 62 
 7 
 10 
2.858
 20 
1.275
 11 
2.875
 21 
1.275
 0 
LINE
 8 
0
 62 
 7 
 10 
2.875
 20 
1.275
 11 
2.883
 21 
1.267
 0 
LINE
 8 
0
 62 
 7 
 10 
2.883
 20 
1.267
 11 
2.883
 21 
1.258
 0 
LINE
 8 
0
 62 
 7 
 10 
2.883
 20 
1.258
 11 
2.875
 21 
1.25
 0 
LINE
 8 
0
 62 
 7 
 10 
2.875
 20 
1.25
 11 
2.858
 21 
1.25
 0 
LINE
 8 
0
 62 
 7 
 10 
2.858
 20 
1.25
 11 
2.85
 21 
1.242
 0 
LINE
 8 
0
 62 
 7 
 10 
2.85
 20 
1.242
 11 
2.85
 21 
1.225
 0 
LINE
 8 
0
 62 
 7 
 10 
2.85
 20 
1.225
 11 
2.883
 21 
1.225
 0 
LINE
 8 
0
 62 
 7 
 10 
2.9
 20 
1.233
 11 
2.9
 21 
1.267
 0 
LINE
 8 
0
 62 
 7 
 10 
2.9
 20 
1.267
 11 
2.908
 21 
1.275
 0 
LINE
 8 
0
 62 
 7 
 10 
2.908
 20 
1.275
 11 
2.925
 21 
1.275
 0 
LINE
 8 
0
 62 
 7 
 10 
2.925
 20 
1.275
 11 
2.933
 21 
1.267
 0 
LINE
 8 
0
 62 
 7 
 10 
2.933
 20 
1.267
 11 
2.933
 21 
1.233
 0 
LINE
 8 
0
 62 
 7 
 10 
2.933
 20 
1.233
 11 
2.925
 21 
1.225
 0 
LINE
 8 
0
 62 
 7 
 10 
2.925
 20 
1.225
 11 
2.908
 21 
1.225
 0 
LINE
 8 
0
 62 
 7 
 10 
2.908
 20 
1.225
 11 
2.9
 21 
1.233
 0 
LINE
 8 
0
 62 
 7 
 10 
2.9
 20 
1.233
 11 
2.933
 21 
1.267
 0 
LINE
 8 
0
 62 
 7 
 10 
1.91
 20 
1.115
 11 
1.866
 21 
1.115
 0 
LINE
 8 
0
 62 
 7 
 10 
1.866
 20 
1.115
 11 
1.866
 21 
1.185
 0 
LINE
 8 
0
 62 
 7 
 10 
1.866
 20 
1.185
 11 
1.91
 21 
1.185
 0 
LINE
 8 
0
 62 
 7 
 10 
1.946
 20 
1.115
 11 
1.99
 21 
1.115
 0 
LINE
 8 
0
 62 
 7 
 10 
1.99
 20 
1.115
 11 
1.99
 21 
1.185
 0 
LINE
 8 
0
 62 
 7 
 10 
1.99
 20 
1.185
 11 
1.946
 21 
1.185
 0 
LINE
 8 
0
 62 
 7 
 10 
2.059
 20 
1.168
 11 
2.051
 21 
1.176
 0 
LINE
 8 
0
 62 
 7 
 10 
2.051
 20 
1.176
 11 
2.034
 21 
1.176
 0 
LINE
 8 
0
 62 
 7 
 10 
2.034
 20 
1.176
 11 
2.026
 21 
1.168
 0 
LINE
 8 
0
 62 
 7 
 10 
2.026
 20 
1.168
 11 
2.026
 21 
1.134
 0 
LINE
 8 
0
 62 
 7 
 10 
2.026
 20 
1.134
 11 
2.034
 21 
1.126
 0 
LINE
 8 
0
 62 
 7 
 10 
2.034
 20 
1.126
 11 
2.051
 21 
1.126
 0 
LINE
 8 
0
 62 
 7 
 10 
2.051
 20 
1.126
 11 
2.059
 21 
1.134
 0 
LINE
 8 
0
 62 
 7 
 10 
2.084
 20 
1.168
 11 
2.093
 21 
1.176
 0 
LINE
 8 
0
 62 
 7 
 10 
2.093
 20 
1.176
 11 
2.093
 21 
1.126
 0 
LINE
 8 
0
 62 
 7 
 10 
2.084
 20 
1.126
 11 
2.101
 21 
1.126
 0 
LINE
 8 
0
 62 
 7 
 10 
2.159
 20 
1.159
 11 
2.151
 21 
1.151
 0 
LINE
 8 
0
 62 
 7 
 10 
2.151
 20 
1.151
 11 
2.134
 21 
1.151
 0 
LINE
 8 
0
 62 
 7 
 10 
2.134
 20 
1.151
 11 
2.126
 21 
1.159
 0 
LINE
 8 
0
 62 
 7 
 10 
2.126
 20 
1.159
 11 
2.126
 21 
1.168
 0 
LINE
 8 
0
 62 
 7 
 10 
2.126
 20 
1.168
 11 
2.134
 21 
1.176
 0 
LINE
 8 
0
 62 
 7 
 10 
2.134
 20 
1.176
 11 
2.151
 21 
1.176
 0 
LINE
 8 
0
 62 
 7 
 10 
2.151
 20 
1.176
 11 
2.159
 21 
1.168
 0 
LINE
 8 
0
 62 
 7 
 10 
2.159
 20 
1.168
 11 
2.159
 21 
1.143
 0 
LINE
 8 
0
 62 
 7 
 10 
2.159
 20 
1.143
 11 
2.143
 21 
1.126
 0 
LINE
 8 
0
 62 
 7 
 10 
2.143
 20 
1.126
 11 
2.134
 21 
1.126
 0 
LINE
 8 
0
 62 
 7 
 10 
2.252
 20 
0.943
 11 
2.245
 21 
0.95
 0 
LINE
 8 
0
 62 
 7 
 10 
2.245
 20 
0.95
 11 
2.232
 21 
0.95
 0 
LINE
 8 
0
 62 
 7 
 10 
2.232
 20 
0.95
 11 
2.225
 21 
0.943
 0 
LINE
 8 
0
 62 
 7 
 10 
2.225
 20 
0.943
 11 
2.225
 21 
0.937
 0 
LINE
 8 
0
 62 
 7 
 10 
2.225
 20 
0.937
 11 
2.232
 21 
0.93
 0 
LINE
 8 
0
 62 
 7 
 10 
2.232
 20 
0.93
 11 
2.245
 21 
0.93
 0 
LINE
 8 
0
 62 
 7 
 10 
2.245
 20 
0.93
 11 
2.252
 21 
0.923
 0 
LINE
 8 
0
 62 
 7 
 10 
2.252
 20 
0.923
 11 
2.252
 21 
0.917
 0 
LINE
 8 
0
 62 
 7 
 10 
2.252
 20 
0.917
 11 
2.245
 21 
0.91
 0 
LINE
 8 
0
 62 
 7 
 10 
2.245
 20 
0.91
 11 
2.232
 21 
0.91
 0 
LINE
 8 
0
 62 
 7 
 10 
2.232
 20 
0.91
 11 
2.225
 21 
0.917
 0 
LINE
 8 
0
 62 
 7 
 10 
2.278
 20 
0.95
 11 
2.278
 21 
0.943
 0 
LINE
 8 
0
 62 
 7 
 10 
2.272
 20 
0.91
 11 
2.285
 21 
0.91
 0 
LINE
 8 
0
 62 
 7 
 10 
2.272
 20 
0.93
 11 
2.278
 21 
0.93
 0 
LINE
 8 
0
 62 
 7 
 10 
2.278
 20 
0.93
 11 
2.278
 21 
0.91
 0 
LINE
 8 
0
 62 
 7 
 10 
2.305
 20 
0.91
 11 
2.305
 21 
0.95
 0 
LINE
 8 
0
 62 
 7 
 10 
2.305
 20 
0.95
 11 
2.325
 21 
0.95
 0 
LINE
 8 
0
 62 
 7 
 10 
2.325
 20 
0.95
 11 
2.332
 21 
0.943
 0 
LINE
 8 
0
 62 
 7 
 10 
2.332
 20 
0.943
 11 
2.332
 21 
0.937
 0 
LINE
 8 
0
 62 
 7 
 10 
2.332
 20 
0.937
 11 
2.325
 21 
0.93
 0 
LINE
 8 
0
 62 
 7 
 10 
2.325
 20 
0.93
 11 
2.305
 21 
0.93
 0 
LINE
 8 
0
 62 
 7 
 10 
2.345
 20 
0.91
 11 
2.345
 21 
0.95
 0 
LINE
 8 
0
 62 
 7 
 10 
2.345
 20 
0.95
 11 
2.358
 21 
0.937
 0 
LINE
 8 
0
 62 
 7 
 10 
2.358
 20 
0.937
 11 
2.358
 21 
0.93
 0 
LINE
 8 
0
 62 
 7 
 10 
2.358
 20 
0.937
 11 
2.372
 21 
0.95
 0 
LINE
 8 
0
 62 
 7 
 10 
2.372
 20 
0.95
 11 
2.372
 21 
0.91
 0 
LINE
 8 
0
 62 
 7 
 10 
2.445
 20 
0.95
 11 
2.452
 21 
0.95
 0 
LINE
 8 
0
 62 
 7 
 10 
2.452
 20 
0.95
 11 
2.452
 21 
0.91
 0 
LINE
 8 
0
 62 
 7 
 10 
2.452
 20 
0.93
 11 
2.445
 21 
0.937
 0 
LINE
 8 
0
 62 
 7 
 10 
2.445
 20 
0.937
 11 
2.432
 21 
0.937
 0 
LINE
 8 
0
 62 
 7 
 10 
2.432
 20 
0.937
 11 
2.425
 21 
0.93
 0 
LINE
 8 
0
 62 
 7 
 10 
2.425
 20 
0.93
 11 
2.425
 21 
0.917
 0 
LINE
 8 
0
 62 
 7 
 10 
2.425
 20 
0.917
 11 
2.432
 21 
0.91
 0 
LINE
 8 
0
 62 
 7 
 10 
2.432
 20 
0.91
 11 
2.438
 21 
0.91
 0 
LINE
 8 
0
 62 
 7 
 10 
2.438
 20 
0.91
 11 
2.452
 21 
0.923
 0 
LINE
 8 
0
 62 
 7 
 10 
2.478
 20 
0.95
 11 
2.478
 21 
0.943
 0 
LINE
 8 
0
 62 
 7 
 10 
2.472
 20 
0.91
 11 
2.485
 21 
0.91
 0 
LINE
 8 
0
 62 
 7 
 10 
2.472
 20 
0.93
 11 
2.478
 21 
0.93
 0 
LINE
 8 
0
 62 
 7 
 10 
2.478
 20 
0.93
 11 
2.478
 21 
0.91
 0 
LINE
 8 
0
 62 
 7 
 10 
2.532
 20 
0.937
 11 
2.512
 21 
0.937
 0 
LINE
 8 
0
 62 
 7 
 10 
2.512
 20 
0.937
 11 
2.505
 21 
0.93
 0 
LINE
 8 
0
 62 
 7 
 10 
2.505
 20 
0.93
 11 
2.512
 21 
0.923
 0 
LINE
 8 
0
 62 
 7 
 10 
2.512
 20 
0.923
 11 
2.525
 21 
0.923
 0 
LINE
 8 
0
 62 
 7 
 10 
2.525
 20 
0.923
 11 
2.532
 21 
0.917
 0 
LINE
 8 
0
 62 
 7 
 10 
2.532
 20 
0.917
 11 
2.525
 21 
0.91
 0 
LINE
 8 
0
 62 
 7 
 10 
2.525
 20 
0.91
 11 
2.505
 21 
0.91
 0 
LINE
 8 
0
 62 
 7 
 10 
2.552
 20 
0.95
 11 
2.552
 21 
0.917
 0 
LINE
 8 
0
 62 
 7 
 10 
2.552
 20 
0.917
 11 
2.558
 21 
0.91
 0 
LINE
 8 
0
 62 
 7 
 10 
2.558
 20 
0.91
 11 
2.565
 21 
0.91
 0 
LINE
 8 
0
 62 
 7 
 10 
2.565
 20 
0.91
 11 
2.572
 21 
0.917
 0 
LINE
 8 
0
 62 
 7 
 10 
2.545
 20 
0.937
 11 
2.565
 21 
0.937
 0 
LINE
 8 
0
 62 
 7 
 10 
2.585
 20 
0.937
 11 
2.585
 21 
0.91
 0 
LINE
 8 
0
 62 
 7 
 10 
2.585
 20 
0.923
 11 
2.598
 21 
0.937
 0 
LINE
 8 
0
 62 
 7 
 10 
2.598
 20 
0.937
 11 
2.605
 21 
0.937
 0 
LINE
 8 
0
 62 
 7 
 10 
2.605
 20 
0.937
 11 
2.612
 21 
0.93
 0 
LINE
 8 
0
 62 
 7 
 10 
2.638
 20 
0.95
 11 
2.638
 21 
0.943
 0 
LINE
 8 
0
 62 
 7 
 10 
2.632
 20 
0.91
 11 
2.645
 21 
0.91
 0 
LINE
 8 
0
 62 
 7 
 10 
2.632
 20 
0.93
 11 
2.638
 21 
0.93
 0 
LINE
 8 
0
 62 
 7 
 10 
2.638
 20 
0.93
 11 
2.638
 21 
0.91
 0 
LINE
 8 
0
 62 
 7 
 10 
2.665
 20 
0.95
 11 
2.665
 21 
0.91
 0 
LINE
 8 
0
 62 
 7 
 10 
2.665
 20 
0.923
 11 
2.678
 21 
0.937
 0 
LINE
 8 
0
 62 
 7 
 10 
2.678
 20 
0.937
 11 
2.685
 21 
0.937
 0 
LINE
 8 
0
 62 
 7 
 10 
2.685
 20 
0.937
 11 
2.692
 21 
0.93
 0 
LINE
 8 
0
 62 
 7 
 10 
2.692
 20 
0.93
 11 
2.692
 21 
0.917
 0 
LINE
 8 
0
 62 
 7 
 10 
2.692
 20 
0.917
 11 
2.685
 21 
0.91
 0 
LINE
 8 
0
 62 
 7 
 10 
2.685
 20 
0.91
 11 
2.672
 21 
0.91
 0 
LINE
 8 
0
 62 
 7 
 10 
2.672
 20 
0.91
 11 
2.665
 21 
0.917
 0 
LINE
 8 
0
 62 
 7 
 10 
2.705
 20 
0.937
 11 
2.705
 21 
0.917
 0 
LINE
 8 
0
 62 
 7 
 10 
2.705
 20 
0.917
 11 
2.712
 21 
0.91
 0 
LINE
 8 
0
 62 
 7 
 10 
2.712
 20 
0.91
 11 
2.718
 21 
0.91
 0 
LINE
 8 
0
 62 
 7 
 10 
2.718
 20 
0.91
 11 
2.732
 21 
0.923
 0 
LINE
 8 
0
 62 
 7 
 10 
2.732
 20 
0.937
 11 
2.732
 21 
0.91
 0 
LINE
 8 
0
 62 
 7 
 10 
2.752
 20 
0.95
 11 
2.752
 21 
0.917
 0 
LINE
 8 
0
 62 
 7 
 10 
2.752
 20 
0.917
 11 
2.758
 21 
0.91
 0 
LINE
 8 
0
 62 
 7 
 10 
2.758
 20 
0.91
 11 
2.765
 21 
0.91
 0 
LINE
 8 
0
 62 
 7 
 10 
2.765
 20 
0.91
 11 
2.772
 21 
0.917
 0 
LINE
 8 
0
 62 
 7 
 10 
2.745
 20 
0.937
 11 
2.765
 21 
0.937
 0 
LINE
 8 
0
 62 
 7 
 10 
2.798
 20 
0.95
 11 
2.798
 21 
0.943
 0 
LINE
 8 
0
 62 
 7 
 10 
2.792
 20 
0.91
 11 
2.805
 21 
0.91
 0 
LINE
 8 
0
 62 
 7 
 10 
2.792
 20 
0.93
 11 
2.798
 21 
0.93
 0 
LINE
 8 
0
 62 
 7 
 10 
2.798
 20 
0.93
 11 
2.798
 21 
0.91
 0 
LINE
 8 
0
 62 
 7 
 10 
2.852
 20 
0.93
 11 
2.845
 21 
0.937
 0 
LINE
 8 
0
 62 
 7 
 10 
2.845
 20 
0.937
 11 
2.832
 21 
0.937
 0 
LINE
 8 
0
 62 
 7 
 10 
2.832
 20 
0.937
 11 
2.825
 21 
0.93
 0 
LINE
 8 
0
 62 
 7 
 10 
2.825
 20 
0.93
 11 
2.825
 21 
0.917
 0 
LINE
 8 
0
 62 
 7 
 10 
2.825
 20 
0.917
 11 
2.832
 21 
0.91
 0 
LINE
 8 
0
 62 
 7 
 10 
2.832
 20 
0.91
 11 
2.845
 21 
0.91
 0 
LINE
 8 
0
 62 
 7 
 10 
2.845
 20 
0.91
 11 
2.852
 21 
0.917
 0 
LINE
 8 
0
 62 
 7 
 10 
2.852
 20 
0.917
 11 
2.852
 21 
0.93
 0 
LINE
 8 
0
 62 
 7 
 10 
2.865
 20 
0.937
 11 
2.865
 21 
0.91
 0 
LINE
 8 
0
 62 
 7 
 10 
2.865
 20 
0.923
 11 
2.878
 21 
0.937
 0 
LINE
 8 
0
 62 
 7 
 10 
2.878
 20 
0.937
 11 
2.885
 21 
0.937
 0 
LINE
 8 
0
 62 
 7 
 10 
2.885
 20 
0.937
 11 
2.892
 21 
0.93
 0 
LINE
 8 
0
 62 
 7 
 10 
2.892
 20 
0.93
 11 
2.892
 21 
0.91
 0 
LINE
 8 
0
 62 
 7 
 10 
2.945
 20 
0.95
 11 
2.945
 21 
0.91
 0 
LINE
 8 
0
 62 
 7 
 10 
2.945
 20 
0.923
 11 
2.958
 21 
0.937
 0 
LINE
 8 
0
 62 
 7 
 10 
2.958
 20 
0.937
 11 
2.965
 21 
0.937
 0 
LINE
 8 
0
 62 
 7 
 10 
2.965
 20 
0.937
 11 
2.972
 21 
0.93
 0 
LINE
 8 
0
 62 
 7 
 10 
2.972
 20 
0.93
 11 
2.972
 21 
0.917
 0 
LINE
 8 
0
 62 
 7 
 10 
2.972
 20 
0.917
 11 
2.965
 21 
0.91
 0 
LINE
 8 
0
 62 
 7 
 10 
2.965
 20 
0.91
 11 
2.952
 21 
0.91
 0 
LINE
 8 
0
 62 
 7 
 10 
2.952
 20 
0.91
 11 
2.945
 21 
0.917
 0 
LINE
 8 
0
 62 
 7 
 10 
3.012
 20 
0.93
 11 
3.005
 21 
0.937
 0 
LINE
 8 
0
 62 
 7 
 10 
3.005
 20 
0.937
 11 
2.992
 21 
0.937
 0 
LINE
 8 
0
 62 
 7 
 10 
2.992
 20 
0.937
 11 
2.985
 21 
0.93
 0 
LINE
 8 
0
 62 
 7 
 10 
2.985
 20 
0.93
 11 
2.985
 21 
0.917
 0 
LINE
 8 
0
 62 
 7 
 10 
2.985
 20 
0.917
 11 
2.992
 21 
0.91
 0 
LINE
 8 
0
 62 
 7 
 10 
2.992
 20 
0.91
 11 
3.005
 21 
0.91
 0 
LINE
 8 
0
 62 
 7 
 10 
3.005
 20 
0.91
 11 
3.012
 21 
0.917
 0 
LINE
 8 
0
 62 
 7 
 10 
3.012
 20 
0.917
 11 
3.012
 21 
0.93
 0 
LINE
 8 
0
 62 
 7 
 10 
3.032
 20 
0.937
 11 
3.045
 21 
0.937
 0 
LINE
 8 
0
 62 
 7 
 10 
3.045
 20 
0.937
 11 
3.052
 21 
0.93
 0 
LINE
 8 
0
 62 
 7 
 10 
3.052
 20 
0.93
 11 
3.052
 21 
0.91
 0 
LINE
 8 
0
 62 
 7 
 10 
3.052
 20 
0.923
 11 
3.032
 21 
0.923
 0 
LINE
 8 
0
 62 
 7 
 10 
3.032
 20 
0.923
 11 
3.025
 21 
0.917
 0 
LINE
 8 
0
 62 
 7 
 10 
3.025
 20 
0.917
 11 
3.032
 21 
0.91
 0 
LINE
 8 
0
 62 
 7 
 10 
3.032
 20 
0.91
 11 
3.045
 21 
0.91
 0 
LINE
 8 
0
 62 
 7 
 10 
3.045
 20 
0.91
 11 
3.052
 21 
0.917
 0 
LINE
 8 
0
 62 
 7 
 10 
3.065
 20 
0.937
 11 
3.065
 21 
0.91
 0 
LINE
 8 
0
 62 
 7 
 10 
3.065
 20 
0.923
 11 
3.078
 21 
0.937
 0 
LINE
 8 
0
 62 
 7 
 10 
3.078
 20 
0.937
 11 
3.085
 21 
0.937
 0 
LINE
 8 
0
 62 
 7 
 10 
3.085
 20 
0.937
 11 
3.092
 21 
0.93
 0 
LINE
 8 
0
 62 
 7 
 10 
3.125
 20 
0.95
 11 
3.132
 21 
0.95
 0 
LINE
 8 
0
 62 
 7 
 10 
3.132
 20 
0.95
 11 
3.132
 21 
0.91
 0 
LINE
 8 
0
 62 
 7 
 10 
3.132
 20 
0.93
 11 
3.125
 21 
0.937
 0 
LINE
 8 
0
 62 
 7 
 10 
3.125
 20 
0.937
 11 
3.112
 21 
0.937
 0 
LINE
 8 
0
 62 
 7 
 10 
3.112
 20 
0.937
 11 
3.105
 21 
0.93
 0 
LINE
 8 
0
 62 
 7 
 10 
3.105
 20 
0.93
 11 
3.105
 21 
0.917
 0 
LINE
 8 
0
 62 
 7 
 10 
3.105
 20 
0.917
 11 
3.112
 21 
0.91
 0 
LINE
 8 
0
 62 
 7 
 10 
3.112
 20 
0.91
 11 
3.118
 21 
0.91
 0 
LINE
 8 
0
 62 
 7 
 10 
3.118
 20 
0.91
 11 
3.132
 21 
0.923
 0 
LINE
 8 
0
 62 
 7 
 10 
3.185
 20 
0.937
 11 
3.185
 21 
0.923
 0 
LINE
 8 
0
 62 
 7 
 10 
3.185
 20 
0.923
 11 
3.198
 21 
0.91
 0 
LINE
 8 
0
 62 
 7 
 10 
3.198
 20 
0.91
 11 
3.212
 21 
0.923
 0 
LINE
 8 
0
 62 
 7 
 10 
3.212
 20 
0.923
 11 
3.212
 21 
0.937
 0 
LINE
 8 
0
 62 
 7 
 10 
3.232
 20 
0.943
 11 
3.238
 21 
0.95
 0 
LINE
 8 
0
 62 
 7 
 10 
3.238
 20 
0.95
 11 
3.238
 21 
0.91
 0 
LINE
 8 
0
 62 
 7 
 10 
3.232
 20 
0.91
 11 
3.245
 21 
0.91
 0 
LINE
 8 
0
 62 
 7 
 10 
3.278
 20 
0.91
 11 
3.272
 21 
0.91
 0 
LINE
 8 
0
 62 
 7 
 10 
3.272
 20 
0.91
 11 
3.272
 21 
0.917
 0 
LINE
 8 
0
 62 
 7 
 10 
3.272
 20 
0.917
 11 
3.278
 21 
0.917
 0 
LINE
 8 
0
 62 
 7 
 10 
3.278
 20 
0.917
 11 
3.278
 21 
0.91
 0 
LINE
 8 
0
 62 
 7 
 10 
3.305
 20 
0.917
 11 
3.305
 21 
0.943
 0 
LINE
 8 
0
 62 
 7 
 10 
3.305
 20 
0.943
 11 
3.312
 21 
0.95
 0 
LINE
 8 
0
 62 
 7 
 10 
3.312
 20 
0.95
 11 
3.325
 21 
0.95
 0 
LINE
 8 
0
 62 
 7 
 10 
3.325
 20 
0.95
 11 
3.332
 21 
0.943
 0 
LINE
 8 
0
 62 
 7 
 10 
3.332
 20 
0.943
 11 
3.332
 21 
0.917
 0 
LINE
 8 
0
 62 
 7 
 10 
3.332
 20 
0.917
 11 
3.325
 21 
0.91
 0 
LINE
 8 
0
 62 
 7 
 10 
3.325
 20 
0.91
 11 
3.312
 21 
0.91
 0 
LINE
 8 
0
 62 
 7 
 10 
3.312
 20 
0.91
 11 
3.305
 21 
0.917
 0 
LINE
 8 
0
 62 
 7 
 10 
3.305
 20 
0.917
 11 
3.332
 21 
0.943
 0 
LINE
 8 
0
 62 
 7 
 10 
2.277
 20 
0.843
 11 
2.27
 21 
0.85
 0 
LINE
 8 
0
 62 
 7 
 10 
2.27
 20 
0.85
 11 
2.257
 21 
0.85
 0 
LINE
 8 
0
 62 
 7 
 10 
2.257
 20 
0.85
 11 
2.25
 21 
0.843
 0 
LINE
 8 
0
 62 
 7 
 10 
2.25
 20 
0.843
 11 
2.25
 21 
0.837
 0 
LINE
 8 
0
 62 
 7 
 10 
2.25
 20 
0.837
 11 
2.257
 21 
0.83
 0 
LINE
 8 
0
 62 
 7 
 10 
2.257
 20 
0.83
 11 
2.27
 21 
0.83
 0 
LINE
 8 
0
 62 
 7 
 10 
2.27
 20 
0.83
 11 
2.277
 21 
0.823
 0 
LINE
 8 
0
 62 
 7 
 10 
2.277
 20 
0.823
 11 
2.277
 21 
0.817
 0 
LINE
 8 
0
 62 
 7 
 10 
2.277
 20 
0.817
 11 
2.27
 21 
0.81
 0 
LINE
 8 
0
 62 
 7 
 10 
2.27
 20 
0.81
 11 
2.257
 21 
0.81
 0 
LINE
 8 
0
 62 
 7 
 10 
2.257
 20 
0.81
 11 
2.25
 21 
0.817
 0 
LINE
 8 
0
 62 
 7 
 10 
2.29
 20 
0.85
 11 
2.29
 21 
0.81
 0 
LINE
 8 
0
 62 
 7 
 10 
2.29
 20 
0.823
 11 
2.303
 21 
0.837
 0 
LINE
 8 
0
 62 
 7 
 10 
2.303
 20 
0.837
 11 
2.31
 21 
0.837
 0 
LINE
 8 
0
 62 
 7 
 10 
2.31
 20 
0.837
 11 
2.317
 21 
0.83
 0 
LINE
 8 
0
 62 
 7 
 10 
2.317
 20 
0.83
 11 
2.317
 21 
0.81
 0 
LINE
 8 
0
 62 
 7 
 10 
2.357
 20 
0.83
 11 
2.35
 21 
0.837
 0 
LINE
 8 
0
 62 
 7 
 10 
2.35
 20 
0.837
 11 
2.337
 21 
0.837
 0 
LINE
 8 
0
 62 
 7 
 10 
2.337
 20 
0.837
 11 
2.33
 21 
0.83
 0 
LINE
 8 
0
 62 
 7 
 10 
2.33
 20 
0.83
 11 
2.33
 21 
0.817
 0 
LINE
 8 
0
 62 
 7 
 10 
2.33
 20 
0.817
 11 
2.337
 21 
0.81
 0 
LINE
 8 
0
 62 
 7 
 10 
2.337
 20 
0.81
 11 
2.35
 21 
0.81
 0 
LINE
 8 
0
 62 
 7 
 10 
2.35
 20 
0.81
 11 
2.357
 21 
0.817
 0 
LINE
 8 
0
 62 
 7 
 10 
2.357
 20 
0.817
 11 
2.357
 21 
0.83
 0 
LINE
 8 
0
 62 
 7 
 10 
2.41
 20 
0.85
 11 
2.41
 21 
0.817
 0 
LINE
 8 
0
 62 
 7 
 10 
2.41
 20 
0.817
 11 
2.417
 21 
0.81
 0 
LINE
 8 
0
 62 
 7 
 10 
2.417
 20 
0.81
 11 
2.43
 21 
0.81
 0 
LINE
 8 
0
 62 
 7 
 10 
2.43
 20 
0.81
 11 
2.437
 21 
0.817
 0 
LINE
 8 
0
 62 
 7 
 10 
2.437
 20 
0.817
 11 
2.437
 21 
0.85
 0 
LINE
 8 
0
 62 
 7 
 10 
2.45
 20 
0.823
 11 
2.477
 21 
0.823
 0 
LINE
 8 
0
 62 
 7 
 10 
2.477
 20 
0.823
 11 
2.477
 21 
0.83
 0 
LINE
 8 
0
 62 
 7 
 10 
2.477
 20 
0.83
 11 
2.47
 21 
0.837
 0 
LINE
 8 
0
 62 
 7 
 10 
2.47
 20 
0.837
 11 
2.457
 21 
0.837
 0 
LINE
 8 
0
 62 
 7 
 10 
2.457
 20 
0.837
 11 
2.45
 21 
0.83
 0 
LINE
 8 
0
 62 
 7 
 10 
2.45
 20 
0.83
 11 
2.45
 21 
0.817
 0 
LINE
 8 
0
 62 
 7 
 10 
2.45
 20 
0.817
 11 
2.457
 21 
0.81
 0 
LINE
 8 
0
 62 
 7 
 10 
2.457
 20 
0.81
 11 
2.47
 21 
0.81
 0 
LINE
 8 
0
 62 
 7 
 10 
2.49
 20 
0.837
 11 
2.49
 21 
0.81
 0 
LINE
 8 
0
 62 
 7 
 10 
2.49
 20 
0.83
 11 
2.497
 21 
0.837
 0 
LINE
 8 
0
 62 
 7 
 10 
2.497
 20 
0.837
 11 
2.503
 21 
0.83
 0 
LINE
 8 
0
 62 
 7 
 10 
2.503
 20 
0.83
 11 
2.503
 21 
0.81
 0 
LINE
 8 
0
 62 
 7 
 10 
2.503
 20 
0.83
 11 
2.51
 21 
0.837
 0 
LINE
 8 
0
 62 
 7 
 10 
2.51
 20 
0.837
 11 
2.517
 21 
0.83
 0 
LINE
 8 
0
 62 
 7 
 10 
2.517
 20 
0.83
 11 
2.517
 21 
0.81
 0 
LINE
 8 
0
 62 
 7 
 10 
2.53
 20 
0.837
 11 
2.53
 21 
0.817
 0 
LINE
 8 
0
 62 
 7 
 10 
2.53
 20 
0.817
 11 
2.537
 21 
0.81
 0 
LINE
 8 
0
 62 
 7 
 10 
2.537
 20 
0.81
 11 
2.543
 21 
0.81
 0 
LINE
 8 
0
 62 
 7 
 10 
2.543
 20 
0.81
 11 
2.557
 21 
0.823
 0 
LINE
 8 
0
 62 
 7 
 10 
2.557
 20 
0.837
 11 
2.557
 21 
0.81
 0 
LINE
 8 
0
 62 
 7 
 10 
2.57
 20 
0.837
 11 
2.57
 21 
0.81
 0 
LINE
 8 
0
 62 
 7 
 10 
2.57
 20 
0.823
 11 
2.583
 21 
0.837
 0 
LINE
 8 
0
 62 
 7 
 10 
2.583
 20 
0.837
 11 
2.59
 21 
0.837
 0 
LINE
 8 
0
 62 
 7 
 10 
2.59
 20 
0.837
 11 
2.597
 21 
0.83
 0 
LINE
 8 
0
 62 
 7 
 10 
2.617
 20 
0.837
 11 
2.63
 21 
0.837
 0 
LINE
 8 
0
 62 
 7 
 10 
2.63
 20 
0.837
 11 
2.637
 21 
0.83
 0 
LINE
 8 
0
 62 
 7 
 10 
2.637
 20 
0.83
 11 
2.637
 21 
0.81
 0 
LINE
 8 
0
 62 
 7 
 10 
2.637
 20 
0.823
 11 
2.617
 21 
0.823
 0 
LINE
 8 
0
 62 
 7 
 10 
2.617
 20 
0.823
 11 
2.61
 21 
0.817
 0 
LINE
 8 
0
 62 
 7 
 10 
2.61
 20 
0.817
 11 
2.617
 21 
0.81
 0 
LINE
 8 
0
 62 
 7 
 10 
2.617
 20 
0.81
 11 
2.63
 21 
0.81
 0 
LINE
 8 
0
 62 
 7 
 10 
2.63
 20 
0.81
 11 
2.637
 21 
0.817
 0 
LINE
 8 
0
 62 
 7 
 10 
2.9
 20 
0.843
 11 
2.907
 21 
0.85
 0 
LINE
 8 
0
 62 
 7 
 10 
2.907
 20 
0.85
 11 
2.92
 21 
0.85
 0 
LINE
 8 
0
 62 
 7 
 10 
2.92
 20 
0.85
 11 
2.927
 21 
0.843
 0 
LINE
 8 
0
 62 
 7 
 10 
2.927
 20 
0.843
 11 
2.927
 21 
0.837
 0 
LINE
 8 
0
 62 
 7 
 10 
2.927
 20 
0.837
 11 
2.92
 21 
0.83
 0 
LINE
 8 
0
 62 
 7 
 10 
2.92
 20 
0.83
 11 
2.907
 21 
0.83
 0 
LINE
 8 
0
 62 
 7 
 10 
2.907
 20 
0.83
 11 
2.9
 21 
0.823
 0 
LINE
 8 
0
 62 
 7 
 10 
2.9
 20 
0.823
 11 
2.9
 21 
0.81
 0 
LINE
 8 
0
 62 
 7 
 10 
2.9
 20 
0.81
 11 
2.927
 21 
0.81
 0 
LINE
 8 
0
 62 
 7 
 10 
2.94
 20 
0.817
 11 
2.94
 21 
0.843
 0 
LINE
 8 
0
 62 
 7 
 10 
2.94
 20 
0.843
 11 
2.947
 21 
0.85
 0 
LINE
 8 
0
 62 
 7 
 10 
2.947
 20 
0.85
 11 
2.96
 21 
0.85
 0 
LINE
 8 
0
 62 
 7 
 10 
2.96
 20 
0.85
 11 
2.967
 21 
0.843
 0 
LINE
 8 
0
 62 
 7 
 10 
2.967
 20 
0.843
 11 
2.967
 21 
0.817
 0 
LINE
 8 
0
 62 
 7 
 10 
2.967
 20 
0.817
 11 
2.96
 21 
0.81
 0 
LINE
 8 
0
 62 
 7 
 10 
2.96
 20 
0.81
 11 
2.947
 21 
0.81
 0 
LINE
 8 
0
 62 
 7 
 10 
2.947
 20 
0.81
 11 
2.94
 21 
0.817
 0 
LINE
 8 
0
 62 
 7 
 10 
2.94
 20 
0.817
 11 
2.967
 21 
0.843
 0 
LINE
 8 
0
 62 
 7 
 10 
2.987
 20 
0.843
 11 
2.993
 21 
0.85
 0 
LINE
 8 
0
 62 
 7 
 10 
2.993
 20 
0.85
 11 
2.993
 21 
0.81
 0 
LINE
 8 
0
 62 
 7 
 10 
2.987
 20 
0.81
 11 
3.0
 21 
0.81
 0 
LINE
 8 
0
 62 
 7 
 10 
3.02
 20 
0.843
 11 
3.02
 21 
0.85
 0 
LINE
 8 
0
 62 
 7 
 10 
3.02
 20 
0.85
 11 
3.047
 21 
0.85
 0 
LINE
 8 
0
 62 
 7 
 10 
3.047
 20 
0.85
 11 
3.047
 21 
0.843
 0 
LINE
 8 
0
 62 
 7 
 10 
3.047
 20 
0.843
 11 
3.027
 21 
0.823
 0 
LINE
 8 
0
 62 
 7 
 10 
3.027
 20 
0.823
 11 
3.027
 21 
0.81
 0 
LINE
 8 
0
 62 
 7 
 10 
3.06
 20 
0.83
 11 
3.087
 21 
0.83
 0 
LINE
 8 
0
 62 
 7 
 10 
3.1
 20 
0.817
 11 
3.1
 21 
0.843
 0 
LINE
 8 
0
 62 
 7 
 10 
3.1
 20 
0.843
 11 
3.107
 21 
0.85
 0 
LINE
 8 
0
 62 
 7 
 10 
3.107
 20 
0.85
 11 
3.12
 21 
0.85
 0 
LINE
 8 
0
 62 
 7 
 10 
3.12
 20 
0.85
 11 
3.127
 21 
0.843
 0 
LINE
 8 
0
 62 
 7 
 10 
3.127
 20 
0.843
 11 
3.127
 21 
0.817
 0 
LINE
 8 
0
 62 
 7 
 10 
3.127
 20 
0.817
 11 
3.12
 21 
0.81
 0 
LINE
 8 
0
 62 
 7 
 10 
3.12
 20 
0.81
 11 
3.107
 21 
0.81
 0 
LINE
 8 
0
 62 
 7 
 10 
3.107
 20 
0.81
 11 
3.1
 21 
0.817
 0 
LINE
 8 
0
 62 
 7 
 10 
3.1
 20 
0.817
 11 
3.127
 21 
0.843
 0 
LINE
 8 
0
 62 
 7 
 10 
3.14
 20 
0.843
 11 
3.147
 21 
0.85
 0 
LINE
 8 
0
 62 
 7 
 10 
3.147
 20 
0.85
 11 
3.16
 21 
0.85
 0 
LINE
 8 
0
 62 
 7 
 10 
3.16
 20 
0.85
 11 
3.167
 21 
0.843
 0 
LINE
 8 
0
 62 
 7 
 10 
3.167
 20 
0.843
 11 
3.167
 21 
0.837
 0 
LINE
 8 
0
 62 
 7 
 10 
3.167
 20 
0.837
 11 
3.16
 21 
0.83
 0 
LINE
 8 
0
 62 
 7 
 10 
3.16
 20 
0.83
 11 
3.147
 21 
0.83
 0 
LINE
 8 
0
 62 
 7 
 10 
3.147
 20 
0.83
 11 
3.14
 21 
0.823
 0 
LINE
 8 
0
 62 
 7 
 10 
3.14
 20 
0.823
 11 
3.14
 21 
0.81
 0 
LINE
 8 
0
 62 
 7 
 10 
3.14
 20 
0.81
 11 
3.167
 21 
0.81
 0 
LINE
 8 
0
 62 
 7 
 10 
3.18
 20 
0.83
 11 
3.207
 21 
0.83
 0 
LINE
 8 
0
 62 
 7 
 10 
3.22
 20 
0.817
 11 
3.22
 21 
0.843
 0 
LINE
 8 
0
 62 
 7 
 10 
3.22
 20 
0.843
 11 
3.227
 21 
0.85
 0 
LINE
 8 
0
 62 
 7 
 10 
3.227
 20 
0.85
 11 
3.24
 21 
0.85
 0 
LINE
 8 
0
 62 
 7 
 10 
3.24
 20 
0.85
 11 
3.247
 21 
0.843
 0 
LINE
 8 
0
 62 
 7 
 10 
3.247
 20 
0.843
 11 
3.247
 21 
0.817
 0 
LINE
 8 
0
 62 
 7 
 10 
3.247
 20 
0.817
 11 
3.24
 21 
0.81
 0 
LINE
 8 
0
 62 
 7 
 10 
3.24
 20 
0.81
 11 
3.227
 21 
0.81
 0 
LINE
 8 
0
 62 
 7 
 10 
3.227
 20 
0.81
 11 
3.22
 21 
0.817
 0 
LINE
 8 
0
 62 
 7 
 10 
3.22
 20 
0.817
 11 
3.247
 21 
0.843
 0 
LINE
 8 
0
 62 
 7 
 10 
3.267
 20 
0.83
 11 
3.26
 21 
0.837
 0 
LINE
 8 
0
 62 
 7 
 10 
3.26
 20 
0.837
 11 
3.26
 21 
0.843
 0 
LINE
 8 
0
 62 
 7 
 10 
3.26
 20 
0.843
 11 
3.267
 21 
0.85
 0 
LINE
 8 
0
 62 
 7 
 10 
3.267
 20 
0.85
 11 
3.28
 21 
0.85
 0 
LINE
 8 
0
 62 
 7 
 10 
3.28
 20 
0.85
 11 
3.287
 21 
0.843
 0 
LINE
 8 
0
 62 
 7 
 10 
3.287
 20 
0.843
 11 
3.287
 21 
0.837
 0 
LINE
 8 
0
 62 
 7 
 10 
3.287
 20 
0.837
 11 
3.28
 21 
0.83
 0 
LINE
 8 
0
 62 
 7 
 10 
3.28
 20 
0.83
 11 
3.267
 21 
0.83
 0 
LINE
 8 
0
 62 
 7 
 10 
3.267
 20 
0.83
 11 
3.26
 21 
0.823
 0 
LINE
 8 
0
 62 
 7 
 10 
3.26
 20 
0.823
 11 
3.26
 21 
0.817
 0 
LINE
 8 
0
 62 
 7 
 10 
3.26
 20 
0.817
 11 
3.267
 21 
0.81
 0 
LINE
 8 
0
 62 
 7 
 10 
3.267
 20 
0.81
 11 
3.28
 21 
0.81
 0 
LINE
 8 
0
 62 
 7 
 10 
3.28
 20 
0.81
 11 
3.287
 21 
0.817
 0 
LINE
 8 
0
 62 
 7 
 10 
3.287
 20 
0.817
 11 
3.287
 21 
0.823
 0 
LINE
 8 
0
 62 
 7 
 10 
3.287
 20 
0.823
 11 
3.28
 21 
0.83
 0 
CIRCLE
 8 
0
 62 
 7 
 10 
4.1
 20 
2.55
 40 
0.12
 0 
CIRCLE
 8 
0
 62 
 7 
 10 
4.1
 20 
2.55
 40 
0.07
 0 
CIRCLE
 8 
0
 62 
 7 
 10 
1.4
 20 
2.55
 40 
0.12
 0 
CIRCLE
 8 
0
 62 
 7 
 10 
1.4
 20 
2.55
 40 
0.07
 0 
CIRCLE
 8 
0
 62 
 7 
 10 
4.1
 20 
1.45
 40 
0.12
 0 
CIRCLE
 8 
0
 62 
 7 
 10 
4.1
 20 
1.45
 40 
0.07
 0 
CIRCLE
 8 
0
 62 
 7 
 10 
1.4
 20 
1.45
 40 
0.12
 0 
CIRCLE
 8 
0
 62 
 7 
 10 
1.4
 20 
1.45
 40 
0.07
 0 
ENDSEC
 0 
EOF
